Song name
# A B C D E F G H I J K L M N O P Q R S T U V W X Y Z

Cream - Swlabr tab

    ----------------------------------------------------------

    CREAM - SWLABR (Bruce & Brown). From DISRAELI GEARS album.
            Released in November 1967.

    ----------------------------------------------------------

    Tabbed by:PJVillanueva





    Coming to me in the morning, leaving me at night.
    Coming to me in the morning, leaving me alone.
    You've got that rainbow feel,
    But the rainbow has a beard.

    Running to me a-cryin', when he throws you out.
    Running to me a-cryin', on your own again.
    You've got that pure feel,
    Such good responses,
    But the picture has a mustache.

    You're comin' to me with that soulful look on your face.
    Coming lookin' like you've never ever done one wrong thing.

                         SOLO

    You're comin' to me with that soulful look on your face.
    You're comin' lookin' like you've never ever done one wrong thing.

    So many fantastic colours, I feel in a wonderland.
    Many fantastic colours, makes me feel so good.
    You've got that pure feel,
    Such good responses,
    Got that rainbow feel,
    But the rainbow has a beard. 

                  


    E     G6    A     G6    E               D       E
  e|0-----0 ----0-- --0---- 0------|0------ 0------ 0------ -------|
  B|0-----0-----2-----0-----0------|0-------3-------0--------------|
  G|1-----0-----2-----0-----1------|1-------2-------1--------------|
  D|2---x-0---x-2---x-0---x-2------|2-------0-------2--------------|
  A|2---x-2---x-0---x-2---x-2------|2-------0-------2--------------|
  E|0---x-3---x-----x-3---x-0---0--|0---0-------0---0-------0---0--|



 

  e|0-----0 ----0-- --0---- 0------|0------ 0------ 0------ -------|
  B|0-----0-----2-----0-----0------|0-------3-------0--------------|
  G|1-----0-----2-----0-----1------|1-------2-------1--------------|
  D|2---x-0---x-2---x-0---x-2------|2-------0-------2--------------|
  A|2---x-2---x-0---x-2---x-2------|2-------0-------2--------------|
  E|0---x-3---x-----x-3---x-0---0--|0---0-----------0-------0---0--|

  e|------- ------- ------- -------|------- ------- ------- -------|
  B|------8-~-8-10-~--10-8-~-------|-------------------------------|
  G|9---9-------------------9---7--|9-~-----7-~-----9-~------------|
  D|-------------------------------|-------------------------------|
  A|-------------------------------|-------------------------------|
  E|-------------------------------|-------------------------------|



    00:07
    E             E7sus4            E               A   G6      E    
  e|0---0-- 0---0-0 ----0-- 0------|0---0-- ------- 0---0-- ----0--|
  B|0---0---0---0-0-----0---0------|0---0-----------2---0-------0--|
  G|1---1---1---1-2-----2---2------|1---1-----------2---0-------1--|
  D|2---2---2---2-0-----0---0------|2---2-------x---2---0-------2--|
  A|2---2---2---2-2-----2---2------|2---2-------x---0---2-------2--|
  E|0---0---0---0-0-----0---0---x--|0---0-------x-------3-------0--|
    Coming  to  me      in  the morning, 
  e|------- ------- ------- -------|------- ------- -9--7-- -------|
  B|-------------------------------|----------------10--8-------9--|
  G|-------------------------------|----------------------------9--|
  D|-------------------------------|-------------------------------|
  A|-------------------------------|-------------------------------|
  E|-------------------------------|-------------------------------|




  e|0---0-- 0---0-0 ----0-- 0------|0---0-- ------- 0---0-- ----0--|
  B|0---0---0---0-0-----0---0------|0---0-----------2---0-------0--|
  G|1---1---1---1-2-----2---2------|1---1-----------2---0-------1--|
  D|2---2---2---2-0-----0---0------|2---2-----------2---0-------2--|
  A|2---2---2---2-2-----2---2------|2---2-----------0---2-------2--|
  E|0---0---0---0-0-----0---0---x--|0---0---------------3-------0--|
    leaving     me     at      night.
  e|------- ------- ------- -------|------- ------- -9--7-- -------|
  B|---~---------------------------|----------------10--8-------9--|
  G|---~---------------------------|----------------------------9--|
  D|-------------------------------|-------------------------------|
  A|-------------------------------|-------------------------------|
  E|-------------------------------|-------------------------------|





  e|0---0-- 0---0-0 ----0-- 0---0--|----0-- ------- 0---0-- ----0--|
  B|0---0---0---0-0-----0---0---0--|----0-----------2---0-------0--|
  G|1---1---1---1-2-----2---2---1--|----1-----------2---0-------1--|
  D|2---2---2---2-0-----0---0---2--|----2-------x---2---5-------2--|
  A|2---2---2---2-2-----2---2---2--|----2-------x---0---2-------2--|
  E|0---0---0---0-0-----0---0---0--|----0-------x-------3-------0--|
    Coming  to  me      in  the morning, 
  e|------- ------- ------- -------|------- ------- -9--7-- -------|
  B|----~--------------------------|----------------10--8-------9--|
  G|----~--------------------------|----------------------------9--|
  D|-------------------------------|-------------------------------|
  A|-------------------------------|-------------------------------|
  E|-------------------------------|-------------------------------|




  e|0---0-- 0---0-0 0------|
  B|0---0---0---0-0-0------|
  G|1---1---1---1-2-2------|
  D|2---2---2---2-0-0------|
  A|2---2---2---2-2-2------|
  E|0---0---0---0-0-0------|
    leaving     me      alone
  e|------- ------- -------|
  B|----~------------------|
  G|----~------------------|
  D|-----------------------|
  A|-----------------------|
  E|-----------------------|


    00:20

  e|0-----0 ----0-- --0---- 0------|0------ 0------ 0------ -------|
  B|0-----0-----2-----0-----0------|0-------3-------0--------------|
  G|1-----0-----2-----0-----1------|1-------2-------1--------------|
  D|2-----0---x-2---x-0-----2------|2-------0-------2--------------|
  A|2-----2---x-0---x-2-----2------|2-------0-------2-------0---0--|
  E|0-----3---x-----x-3-----0---0--|0---0-----------0-------0---0--|
                                                        You got that
  e|------- ------- ------- -------|------- ------- ------- -------|
  B|------8-~-8-10-~--10-8-~-------|-------------------------------|
  G|9---9-------------------9---7--|9-~-----7-~--------------------|
  D|-------------------------------|----------------9--------------|
  A|-------------------------------|-------------------------------|
  E|-------------------------------|-------------------------------|




    C                               B
  e|8------ 8------ 8------ 8---8--|7------ ------- ------- -------|
  B|8-------8-------8-------8---8--|7------------------------------|
  G|9-------9-------9-------9---9--|8------------------------------|
  D10------10------10------10--10--|9------------------------------|
  A10------10------10------10--10--|9------------------------------|
  E|8-------8-------8-------8---8--|7------------------------------|
    rainbow         feel,               but the rainbow has a   beard.  
  e|------- ------- ------- -------|------- ------- ------- -------|
  B|-----------------------101110-8|-------------------------------|
  G|-------------------------B-R-P-|-------------------------------|
  D|-------------------------------|9------------------------------|
  A|-------------------------------|-------------------------------|
  E|-------------------------------|-------------------------------|





  e|0-----0 ----0-- --0---- 0------|0------ 0------ 0------ -------|
  B|0-----0-----2-----0-----0------|0-------3-------0--------------|
  G|1-----0-----2-----0-----1------|1-------2-------1--------------|
  D|2---x-0-----2-----0-----2------|2-------0-------2--------------|
  A|2---x-2-----0-----2-----2------|2-------0-------2-------2---2--|
  E|0---x-3-----------3-----0---0--|0---0-----------0-------0---0--|

  e|------- ------- ------- -------|------- ------- ------- -------|
  B|------8-~-8-10-~--10-8-~-------|-------------------------------|
  G|9---9-------------------9---7--|9-~-----7-~-----9-~------------|
  D|-------------------------------|-------------------------------|
  A|-------------------------------|-------------------------------|
  E|-------------------------------|-------------------------------|



    00:32
    Running to me a-cryin', when he throws you out.
    Running to me a-cryin', on your own again.
    You've got that 
    

    00:49

  e|8---8-- 8------ 8---8-- 8------|8---8-- 8---8-- 8---8-- 8------|
  B|8---8---8-------8---8---8------|8---8-- 8---8-- 8---8-- 8------|
  G|9---9---9-------9---9---9------|9---9---9---9---9---9---9------|
  D10--10--10------10--10--10------10--10--10--10--10--10--10------|
  A10--10--10------10--10--10------10--10--10--10--10--10--10------|
  E|8---8---8-------8---8---8------|8---8---8---8---8---8---8------|
    pure        feel,
  e|------- ------- ------- -------|12-10-- -B----- ------- -------|
  B|-------------------15B17-~-----|-------1011-10--8-~-----10B12-~|
  G|-------------------------------|-------------------------------|
  D|-------------------------------|-------------------------------|
  A|-------------------------------|-------------------------------|
  E|-------------------------------|-------------------------------|




  e|8---8-- 8------ 8------ 8------|7------ ------- ------- -------|
  B|8---8---8-------8-------8------|7------------------------------|
  G|9---9---9-------9-------9---0--|8------------------------------|
  D10--10--10------10------10---0--|9------------------------------|
  A10--10--10------10------10------|9------------------------------|
  E|8---8---8-------8-------8------|7------------------------------|
    Such good responses,                    but the picture has a 
  e|------- ------- ------- -B-R-P-|------- ------- ------- -------|
  B|-----------------------101110-8|-------------------------------|
  G|-------------------------------|-------------------------------|
  D|-------------------------------|9------------------------------|
  A|-------------------------------|-------------------------------|
  E|-------------------------------|-------------------------------|


            xx

  e|------- -------|
  B|---------------|
  G|---------------|
  D|---------------|
  A|---------------|
  E|---------------|
    mustache.




  e|0-----0 ----0-- --0---- 0------|0------ 0------ 0------ -------|
  B|0-----0-----2-----0-----0------|0-------3-------0--------------|
  G|1-----0-----2-----0-----1------|1-------2-------1--------------|
  D|2-----0-----2-----0-----2------|2-------0-------2--------------|
  A|2-----2-----0-----2-----2------|2-------0-------2-----------2--|
  E|0-----3-----------3-----0---0--|0---------------0-----------0--|
                                                                you're
  e|------- ------- ------- -------|------- ------- ------- -------|
  B|------8-~-8-10-~--10-8-~-------|-------------------------------|
  G|9---9-------------------9---7--|9-~-----7-~-----9-~------------|
  D|-------------------------------|-------------------------------|
  A|-------------------------------|-------------------------------|
  E|-------------------------------|-------------------------------|



    01:02
    Dbm
  e|4------ 4---4-- ----4-- 4---4--|----4-- 4---4-- ----4-- 4---4--|
  B|5-------5---5-------5---5---5--|----5---5---5-------5---5---5--|
  G|6-------6---6-------6---6---6--|----6---6---6-------6---6---4--|
  D|6-------6---6-------6---6---6--|----6---6---6-------6---6---6--|
  A|4-------4---4-------4---4---4--|----4---4---4-------4---4---4--|
  E|-------------------------------|-------------------------------|
    coming  to  me      with    soulful         look    on  your
                            that                                face

                                                       
    E       E7                                      E7#9
  e|0------ 0---0-- 0---0-- ----0--|0------ 0---0-- 3-3---- 3------|
  B|0-------3---3---3---0-------3--|3-------3---3---3-3-----3---0--|
  G|1-------1---1---1---1-------1--|1-------1---1---1-1-----1---0--|
  D|2-------2---2---2---2-------2--|2-------2---2---2-2-----2---0--|
  A|2-------2---2---2---2-------2--|2-------2---2---2-2-----2------|
  E|0-------0---0---0---0-------0--|0-------0---0---0-0-----0------|

  e|------- ------- ------- -------|------- ------- ------- -------|
  B|--------17B20-----17B20--R-17--|17--15--17--15-~--------17-----|
  G|-------------------------------|-------------------------------|
  D|-------------------------------|-------------------------------|
  A|-------------------------------|-------------------------------|
  E|-------------------------------|-------------------------------|



    C                                                           B
  e|8---8-- 8------ 8---8-- 8------|8---8-- 8------ 8---8-- 8---7-7|
  B|8---8---8--10---8---8---8--10--|8---8---8--10---8---8---8---7-7|
  G|9---9---9--10---9---9---9--10--|9---9---9--10---9---9---9---8-8|
  D10--10--10--10--10--10--10--10--10--10--10--10--10--10--10---9-9|
  A10--10--10---8--10--10--10---8--10--10--10--10--10--10--10---9-9|
  E|8---8---8---8---8---8---8---8--|8---8---8---8---8---8---8---7-7|


                                    
                                    xxX   xxX   xxX   xxX   xx  X

  e|7---7-- 7---7-7 7---7-7 7---7-7|7------ ------- ------- -------|
  B|7---7---7---7-7-7---7-7-7---7-7|7------------------------------|
  G|8---8---8---8-8-8---8-8-8---8-8|8------------------------------|
  D|9---9---9---9-9-9---9-9-9---9-9|9------------------------------|
  A|9---9---9---9-9-9---9-9-9---9-9|9------------------------------|
  E|7---7---7---7-7-7---7-7-7---7-7|7------------------------------| 

  e|------- ------- ------- -------|------- ------- ------- -------|
  B|-------------------------------|-------------------------------|
  G|--------9---9-9H11P9--9-11B14--|11B14--------------------------|
  D|---9/11--11---------11---------|-------------------------------|
  A|-------------------------------|-------------------------------|
  E|-------------------------------|-------------------------------|

    SOLO
    01:17
    X

  e|0---0-- 0---0-0 ----0-- 0---0--|------- 0------ 5---3-- ----0--|
  B|0---0---0---0-0-----0---0---0--|--------0-------5---3-------0--|
  G|1---1---1---1-2-----2---2---1--|--------1-------6---4-------1--|
  D|2---2---2---2-0-----0---0---2--|--------2-------7---5-------2--|
  A|2---2---2---2-2-----2---2---2--|--------2-------7---5-------2--|
  E|0---0---0---0-0-----0---0---0--|--------0-------5---3-------0--|

  e|------- ------- ------- -------|------- ------- ------- -------|
  B|------------14-----------------|--------15B17-~----------------|
  G|16B18-~---------16B18-~----1615|13-----------------------------|
  D|-------------------------------|-------------------------------|
  A|-------------------------------|-------------------------------|
  E|-------------------------------|-------------------------------|




  e|------- 0---0-0 ----0-- 0---0--|----0-- 0------ 5---3-- ----0--|
  B|--------0---0-0-----0---0---0--|----0---0-------5---3-------0--|
  G|--------1---1-2-----2---2---1--|----1---1-------6---4-------1--|
  D|--------2---2-0-----0---0---2--|----2---2-------7---5-------2--|
  A|--------2---2-2-----2---2---2--|----2---2-------7---5-------2--|
  E|--------0---0-0-----0---0---0--|----0---0-------5---3-------0--|

  e|--B---- ----B-- --B---- ----H--|------- ------- ------- -------|
  B|1720------1720--1720-------1517|15--~--------------------------|
  G|--------------------------16---|------------------------9--11--|
  D|-------------------------------|------------------9/11---------|
  A|-------------------------------|-------------------------------|
  E|-------------------------------|-------------------------------|




  e|0-0---- 0------ 0---0-- ----0--|----0-- ------- 5---3-- ----0--|
  B|0-0-----0-------0---0-------0--|----0-----------5---3-------0--|
  G|1-1-----1-------2---2-------2--|----1-----------6---4-------1--|
  D|2-2-----2-------0---0-------0--|----2-----------7---5-------2--|
  A|2-2-----2-------2---2-------2--|----2-----------7---5-------2--|
  E|0-0-----0-------0---0-------0--|----0-----------5---3-------0--|

  e|------- ------- ------- -------|------- ------- ------- -------|
  B|--------10--12-----------------|-------------------------------|
  G|1113------------1113-~-----9H11P9------------------------------|
  D|--B---------------B------------|---11-~------------------------|
  A|-------------------------------|-------------------------------|
  E|-------------------------------|-------------------------------|




  e|0-----0 0-----0 0---0-- 0---0--|0---0-- 0------ 5---3-- ----0--|
  B|0-----0-0-----0-0---0---0---0--|0---0---0-------5---3-------0--|
  G|1-----1-1-----1-2---2---2---1--|1---1---1-------6---4-------1--|
  D|2-----2-2-----2-0---0---0---2--|2---2---2-------7---5-------2--|
  A|2-----2-2-----2-2---2---2---2--|2---2---2-------7---5-------2--|
  E|0-----0-0-----0-0---0---0---0--|0---0---0-------5---3---0---0--|

  e|--B---- ------- ------- -------|------- ------- ------- -------|
  B|1517----15--12------------B----|-------------------------------|
  G|----------------141614--1211---|----------------14--12-~-------|
  D|------------------B----------14|14-~---------------------------|
  A|-------------------------------|-------------------------------|
  E|-------------------------------|-------------------------------|




  e|0-----0 ----0-- --0---- 0---0--|0---0-- 0---0-- 0------ -------|
  B|0-----0-----2-----0-----0---0--|0---0---3---3---0--------------|
  G|1-----0-----2-----0-----1---1--|1---1---2---2---1--------------|
  D|2-----0-----2-----0---x-2---2--|2---2---0---0---2--------------|
  A|2-----2-----0-----2---x-2---2--|2---2---0---0---2-----------2--|
  E|0-----3-----------3---x-0---0--|0---0-----------0-----------0--|
                                                                You're
  e|------- ------- ------- -------|------- ------- ------- -------|
  B|------8-~-8-10-~-----8-~-------|-------------------------------|
  G|9---9-------------------9---7--|9-~-----7-~-----9-~------------|
  D|-------------------------------|-------------------------------|
  A|-------------------------------|-------------------------------|
  E|-------------------------------|-------------------------------|


    01:36
    
  e|4------ 4------ 4------ 4---4--|4------ 4---4-4 4-4-4-- 4------|
  B|5-------5-------5-------5---5--|5-------5---5-5-5-5-5---5------|
  G|6-------6-------6-------6---6--|6-------6---6-6-6-6-6---4------|
  D|6---6---6---6---6---6---6---6--|6---6---6---6-6-6-6-6---6------|
  A|4-------4-------4-------4---4--|4-------4---4-4-4-4-4---4------|
  E|-------------------------------|-------------------------------|
    coming  to  me      with    soulful         look    on  your
                            that                                face



  e|0---0-- 0---3-- 3---3-- 3-----0|0---0-- 3---3-- ----3-- 3------|
  B|0---0---3---3---3---3---3-----0|0---0---3---3-------3---3------|
  G|1---1---1---1---1---1---1-----1|1---1---1---1-------1---1------|
  D|2---2---2---2---2---2---2-----2|2---2---2---2-------2---2------|
  A|2---2---2---2---2---2---2-----2|2---2---2---2-------2---2------|
  E|0---0---0---0---0---0---0-----0|0---0---0---0-------0---0------|
                                                                you're
  e|------- ----B-- ------- -------|------- ------- ------- -------|
  B|----------1720---------R-----17|----17--151715-~----17---------|
  G|-------------------------------|-------------------------------|
  D|-------------------------------|-------------------------------|
  A|-------------------------------|-------------------------------|
  E|-------------------------------|-------------------------------|



    C           F   
  e|8---8-- 8------ 8---8-- 8------|8---8-- 8------ 8---8-- 8------|
  B|8---8---8--10---8---8---8--10--|8---8---8--10---8---8---8--10--|
  G|9---9---9--10---9---9---9--10--|9---9---9--10---9---9---9--10--|
  D10--10--10--10--10--10--10--10--10--10--10--10--10--10--10--10--|
  A10--10--10---8--10--10--10---8--10--10--10--10--10--10--10---8--|
  E|8---8---8---8---8---8---8---8--|8---8---8---8---8---8---8---8--|
    comin'  lookin' like    never   ever    done        wrong   thing. 
                        you've                  one          


    B           E
  e|7---7-- 7------ 7------ 7------|7------ 7---7-- ----7-- -------|
  B|7---7---7---9---7---9---7---9--|7---9---7---7---9---7---9------|
  G|8---8---8---9---8---9---8---9--|8---9---8---8---9---8---9------|
  D|9---9---9---9---9---9---9---9--|9---9---9---9---9---9---9------|
  A|9---9---9---7---9---7---7---7--|9---7---9---9---7---9---7------|
  E|7---7---7---7---7---7---7---7--|7---7---7---7---7---7---7------|
                                                                So
  e|------- ------- ------- -------|------- ------- ------- -------|
  B|-------------------------------|-------------------------------|
  G|--------11B14---11B14---11--9--11H13\9--11------9-~------------|
  D|----11-------------------------|-------------------------------|
  A|-------------------------------|-------------------------------|
  E|-------------------------------|-------------------------------|


    01:52
    many fantastic colours, I feel in a wonderland.
    Many fantastic colours, makes me feel so good.
    You've got that 
    
    
    02:09

  e|8---8-- 8------ 8---8-- 8------|8------ 8------ 8---8-- 8------|
  B|8---8---8-------8---8---8------|8------ 8------ 8---8-- 8------|
  G|9---9---9-------9---9---9------|9-------9-------9---9---9------|
  D10--10--10------10--10--10------10------10------10--10--10------|
  A10--10--10------10--10--10------10------10------10--10--10------|
  E|8---8---8-------8---8---8------|8-------8-------8---8---8------|
    pure        feel,
  e|------- ------- ------- -------|------- H-B-R-- ------- -------|
  B|-----------------------B17----R15P12--12151715P12--12-~--------|
  G|-------------------------------|----14-----------14------------|
  D|-------------------------------|-------------------------------|
  A|-------------------------------|-------------------------------|
  E|-------------------------------|-------------------------------|




  e|8------ 8------ 8------ 8------|8---8-- 8---8-- 8------ 8------|
  B|8-------8-------8-------8------|8---8---8---8---8-------8------|
  G|9-------9-------9-------9------|9---9---9---9---9-------9------|
  D10------10------10------10------10--10--10--10--10------10------|
  A10------10------10------10------10--10--10--10--10------10------|
  E|8-------8-------8-------8------|8---8---8---8---8-------8------|  
    Such good responses,                                Got     that
  e|------- ------- ------- -------|------- ------- ------- -------|
  B|----------------------------15-|--------B----------------------|
  G|------------------------1416---|14H16-141614121412-------------|
  D|--------------------------B----|-------------------------------|
  A|-------------------------------|-------------------------------|
  E|-------------------------------|-------------------------------|
   



  e|8------ 8------ 8------ 8---8--|7------ ------- ------- -------|
  B|8-------8-------8-------8---8--|7------------------------------|
  G|9-------9-------9-------9---9--|8------------------------------|
  D10------10------10------10--10--|9------------------------------|
  A10------10------10------10--10--|9------------------------------|
  E|8-------8-------8-------8---8--|7------------------------------|
    rainbow         feel                but the rainbow has a   beard
  e|------- ------- ------- -------|------- ------- ------- -------|
  B|-------------------1110-8------|-------------------------------|
  G|------------------B--R-P----9--|-------------------------------|
  D|-------------------------------|9------------------------------|
  A|-------------------------------|-------------------------------|
  E|-------------------------------|-------------------------------|




  e|0-----0 ----0-- --0---- 0---0--|0------ 0------ 0------ -------|
  B|0-----0-----2-----0-----0---0--|0-------3-------0--------------|
  G|1-----0-----2-----0-----1---1--|1-------2-------1--------------|
  D|2-----0-----2-----0-----2---0--|2-------0-------2--------------|
  A|2-----2-----0-----2-----2---0--|2-------0-------2-----------2--|
  E|0-----3-----------3-----0---0--|0---------------0-----------0--|

  e|------- ------- ------- -------|------- ------- ------- -------|
  B|------8-~-8-10-~--10-8-~-------|-------------------------------|
  G|9-----------------------9---7--|9-~-----7-~-----9-~------------|
  D|-------------------------------|-------------------------------|
  A|-------------------------------|-------------------------------|
  E|-------------------------------|-------------------------------|


               (.

  e|0-----0 ----0-- ------- -------|------- ------- ------- -------|
  B|0-----0-----2------------------|-------------------------------|
  G|1-----0-----2------------------|-------------------------------|
  D|2-----0-----2------------------|-------------------------------|
  A|2-----2-----0------------------|-------------------------------|
  E|0-----3-----0------------------|-------------------------------|

  e|------- ------- ------- -------|------- ------- ------- -------|
  B|------8---8-10-----------------|-------------------------------|
  G|9---9--------------------------|-------------------------------|
  D|-------------------------------|-------------------------------|
  A|-------------------------------|-------------------------------|
  E|-------------------------------|-------------------------------|








        B  Bend
        R  Release
        /  Slide up
        \  Slide down
        H  Hammer-on
        P  Pull-off
        ~  Vibrato
        +  Harmonic
        x  Mute note
        .  Play note like a dot in standard notation
        ^  Ties two notes together
        (. Pause



Tap to rate this tab
 
# A B C D E F G H I J K L M N O P Q R S T U V W X Y Z