Guitaretab - guitar tabs
Song name
# A B C D E F G H I J K L M N O P Q R S T U V W X Y Z

Cream - Pressed Rat And Warthog tab

-------------------------------------------------------------------------
                   Pressed Rat and Warthog- Cream
-------------------------------------------------------------------------
Tabbed by:JJ
Email:acdc_tattoo@yahoo.com

Tuning:standard
The verses have a  time feel to them

intro
e|--2--0-----0--2--0-----0--2--0-----/5--\3--2--0-----0---|
B|--3-----3-----3-----3-----3-----3----------3-----3------|
G|--2-----------2-----------2----------------2------------|
D|--------------------------------------------------------|
A|--------------------------------------------------------|
E|--------------------------------------------------------|

[ Tab from: http://www.guitaretab.com/c/cream/68439.html ]
verse
e|----------------------------------------|
B|----------------------------------------|
G|--------7--------5--------7--------5----| 4x
D|-----7--------5--------7--------5-------|
A|--5--------3--------5--------3----------|
E|----------------------------------------|

e|-----------------------------------------------|
B|-----------------------------------------------|
G|---777---666---442---4---777---666---442---4---| 4x
D|---777---666---442---4---777---666---442---4---|
A|---555---444---220---2---555---444---220---2---|
E|-----------------------------------------------|


end
e|--2--0-----0--2--0-----0--2--0-----/5--\3--2--0-----0---|
B|--3-----3-----3-----3-----3-----3----------3-----3--3---|
G|--2-----------2-----------2----------------2--------2---|
D|--------------------------------------------------------|
A|--------------------------------------------------------|
E|--------------------------------------------------------|


Intro   2x
Verse   1x
Intro   2x
Verse   1x
Intro   1x
End     1x
Related for Pressed Rat And Warthog tab