Song name
# A B C D E F G H I J K L M N O P Q R S T U V W X Y Z

Cream - Politician tab

Cream
Politician
Goodbye
1969

  I have been playing this song for a while, and I thought I should share it. The song
mostly easy and I have
provided a D Pentatonic Blues Box scale with all of it's attachments. I just thought 
some people who don't no much about
scales, knowing how they all fit together is good for making solos and
improv

Lyrics:

Hey now baby, get into my big black car.
Hey now baby, get into my big black car.
I want to just show you what my politics are.

Im a political man and I practice what I preach.
Im a political man and I practice what I preach.
So dont deny me baby, not while youre in my reach.

I support the left, though Im leaning, leaning to the right.
I support the left, though Im leaning to the right.
But Im just not there when its coming to a fight.

Hey now baby, get into my big black car.
Hey now baby, get into my big black car.
I want to just show you what my politics are.


|------------------------------|--------------------------------|------------------------------|
|------------------------------|--------------------------------|------------------------------|
|------------------------------|-------------5-----5~-7--5------|------------------------------|
|--------3--4------------------|--------5h7-----7-----------7\--|--------3--4------------------|
|--4--5--------4h5--4h5--------|--4--5--------------------------|--4--5--------4h5--4h5--------|
|------------------------4--5--|--------------------------------|------------------------4--5--|

|---------------------------------------------------------|
|-------------------------6b------------------------------|
|-------------5-----5~-7------4---------------------------|
|--4--5--5h7-----7------------------3--4------------------|
|--------------------------------5--------4h5--4h5--------|
|---------------------------------------------------4--5--|

|--------------------------------|
|--------5--X--5--3--3--5--5--5--|
|--------4--X--4--2--2--4--4--4--|
|--------5--X--5--3--3--5--5--5--|
|--------------------------------|
|--3--3--------------------------|

The Fills and solos are made with improvision scales. Try using this D pentatonic

|X_X|=two scales connect and use this note here

|10f|11f|12f|13f|14f|15f|16f|17f|18f|19f|20f|21f|
|-X-|---|---|X_X|---|X_X|---|X_X|---|---|-X-|---|
|-X-|---|---|X_X|---|X_X|---|---|X_X|---|-X-|---|
|-X-|---|X_X|---|X_X|---|---|X_X|---|-X-|---|---|
|-X-|---|X_X|---|---|X_X|---|X_X|---|-X-|---|---|
|-X-|---|X_X|---|---|X_X|---|X_X|---|---|-X-|---|
|-X-|---|---|X_X|---|X_X|---|X_X|---|---|-X-|---|
| D |D# | E | F |F# | G |G# | A |A# | B | C |C# |

Patterns Individually

 10f
|-X-|---|---|-X-|---|
|-X-|---|---|-X-|---|
|-X-|---|-X-|---|---|
|-X-|---|-X-|---|---|
|-X-|---|-X-|---|---|
|-X-|---|---|-X-|---|

 12f
|---|-X-|---|-X-|---|
|---|-X-|---|-X-|---|
|-X-|---|-X-|---|---|
|-X-|---|---|-X-|---|
|-X-|---|---|-X-|---|
|---|-X-|---|-X-|---|

 14f
|---|-X-|---|-X-|---|
|---|---|-X-|---|-X-|
|-X-|---|---|-X-|---|
|---|-x-|---|-X-|---|
|---|-X-|---|-X-|---|
|---|-X-|---|-X-|---|

 17f
|-X-|---|---|-X-|---|
|---|-X-|---|-X-|---|
|-X-|---|-X-|---|---|
|-X-|---|-X-|---|---|
|-X-|---|---|-X-|---|
|-X-|---|---|-X-|---|
Tap to rate this tab
# A B C D E F G H I J K L M N O P Q R S T U V W X Y Z