Song name
# A B C D E F G H I J K L M N O P Q R S T U V W X Y Z

Cream - Outside Woman Blues Acoustic tab

OUTSIDE WOMAN BLUES

Acoustic Version that Clapton plays from time-to-time

E7#9 x7678x
B7#9 x2123x


INTRO

       E7#9
---------------------------|
-------8-------------------|
-------7-------------------|
-------6--------2--------2-|   (x4)
-------7—-0h2h4-----0h2----|
-0--0----------------------|

VERSE

      E7#9
---------------------------|
-------8-------------------|
-------7-------------------|
-------6--------2--------2-|   (x2)
-------7—-0h2h4-----0h2----|
-0--0----------------------|

----------------------|-------------------|
----------------------|-------------------|
----------------------|-------------------|
----5-7-8-7-5---5~----|--------2--------2-|   
-/7-----------7----7--|--0h2h4-----0h2----|
----------------------|-------------------|

CHROUS

Play B7#9 (listen for the timings)

----------------------|-------------------|
----------------------|-------------------|
----------------------|-------------------|
----5-7-8-7-5---5~----|--------2--------2-|   
-/7-----------7----7--|--0h2h4-----0h2----|
----------------------|-------------------|

SOLO MIDDLE BIT

      E7#9
---------------------------|
-------8888888-------------|
-------7777777-------------|
-------6666666-----------2-|   (x2)
-------7777777—-----0h2----|
-0--0----------------------|

----------------------|-------------------|
----8-9-10-9-8----8---|-------------------|
-/9-------------9---9-|-------------------|
----------------------|--------2--------2-|   
----------------------|--0h2h4-----0h2----|
----------------------|-------------------|

(REPEAT)

Play B7#9 (listen for the timings)

--------------------|
-3/4--4/3-----------|
-2/3--3/2--0h2------|
----------------2p0-|   
-------—------------|
--------------------|

----------------------|-------------------|
----8-9-10-9-8----8---|-------------------|
-/9-------------9---9-|-------------------|
----------------------|--------2--------2-|   
----------------------|--0h2h4-----0h2----|
----------------------|-------------------|

(VERSE + CHROUS TO FINISH)

CHORDS AND LYRICS…

Verse One

E7#9
If you lose your money, great God, don't lose your mind
E7#9
If you lose your money, great God, don't lose your mind

Chorus One

           B7#9
And if you lose your woman, please don't fool with mine

Verse Two

E7#9
I'm gonna buy me a bulldog, watch my lady whilst I sleep
E7#9
I'm gonna buy me a bulldog, watch my lady whilst I sleep

Chorus Two

           B7#9
'Cause women these days, they're so doggone crooked,
That they might make off 'fore day creep

Verse Three

E7#9
Well, you can't watch your wife and your outside women, too
E7#9
You know you can't watch your wife and your outside womens, too

Chorus Three

           B7#9
Cause when you're out with your women, your wife will be at home,
Cooking your food, doing a dirt, buddy what you trying to do?
Tap to rate this tab
 
# A B C D E F G H I J K L M N O P Q R S T U V W X Y Z