Guitaretab - guitar tabs
Song name
# A B C D E F G H I J K L M N O P Q R S T U V W X Y Z
Home / C / Cream / Badge tab

Cream - Badge tab

    -----------------------------------------------------

    CREAM - BADGE (Clapton & Harrison) From GOODBYE CREAM
            album. Released in January, 1969.
   
    -----------------------------------------------------

    Tabbed by:PJVillanueva




    This song is full of muted rhythm chords, while others 
    are let ring very briefly. The ringing Amadd9 chord and
    the guitar riff are just bright. If you wonder why they 
    named it BADGE, some say that Ringo, who was helping with
    the number, casually read upside down a sheet of paper in
    which it was written "Bridge" & mispelled it for "Badge". 
    They liked it and gave it that name, but the word doesn't
    appear at all in the song. 


 



    Thinkin' 'bout the times you drove in my car.
    Thinkin' that I might have drove you too far.
    And I'm thinkin' 'bout the love that you laid on my table.

    I told you not to wander 'round in the dark.
    I told you 'bout the swans, that they live in the park.
    Then I told you 'bout our kid, now he's married to Mabel.

    Yes, I told you that the light goes up and down.
    Don't you notice how the wheel goes 'round?
    And you better pick yourself up from the ground
    Before they bring the curtain down,
    Yes, before they bring the curtain down.

    Talkin' 'bout a girl that looks quite like you.
    She didn't have the time to wait in the queue.
    She cried away her life since she fell off the cradle. 





   (Muted chords)
    Am                              D
  e|5------ 5------ 5------ 5------|5------ 5------ 5------ 5------|
  B|5-------5-------5-------5------|7-------7-------7-------7------|
  G|5-------5-------5-------5------|7-------7-------7-------7------|
  D|7-------7-------7-------7------|7-------7-------7-------7------|
  A|7-------7-------7-------7------|5-------5-------5-------5------|
  E|5-------5-------5-------5------|-------------------------------|
                          
  e|------- ------- ------- -------|------- ------- ------- -------|
  B|----------------------------7--|----7-------7-------7----------|
  G|----------------------------7--|----7-------7-------7----------|
  D|------------5---------------7--|----7-------7-------7-------7--|
  A|------------7-------7-------5--|----5-------5-------5-------7--|
  E|5------------------------------|----------------------------5--|




                                                            x

  e|5------ 5------ 5------ 5------|5------ 5------ 5------ 5------|
  B|5-------5-------5-------5------|7-------7-------7-------7------|
  G|5-------5-------5-------5------|7-------7-------7-------7------|
  D|7-------7-------7-------7------|7-------7-------7-------7------|
  A|7-------7-------7-------7------|5-------5-------5-------5------|
  E|5-------5-------5-------5------|-------------------------------|

  e|------- ------- ------- -------|------- ------- ------- -------|
  B|----------------------------7--|----7-------7-------7----------|
  G|----------------------------7--|----7-------7-------7----------|
  D|7-----------7-------7-------7--|----7-------7-------7-------7--|
  A|7-----------7-------7-------5--|----5-------5-------5-------7--|
  E|5-----------5-------5----------|----------------------------5--|




    00:09

  e|5------ 5------ 5------ 5------|5------ 5------ 5------ ----5--|
  B|5-------5-------5-------5------|7-------7-------7-----------7--|
  G|5-------5-------5-------5------|7-------7-------7-----------7--|
  D|7-------7-------7-------7------|7-------7-------7-----------7--|
  A|7-------7-------7-------7------|5-------5-------5-----------5--|
  E|5-------5-------5-------5------|-------------------------------|
                   
  e|------- ------- ------- -------|14----- 14----- 15--14- 14-----|
  B|13------13------15--13--13-----|15------15------15--15--15-----|
  G|14------14------14--14--14-----|14------14------14--14--14-----|
  D|14------14------14--14--14-----|-------------------------------|
  A|-------------------------------|-------------------------------|
  E|-------------------------------|-------------------------------|
                    Thinkin'    the times   you drove   in  my  car.
                           'bout   



    Esus2               Em              
  e|7---7-- 7---7-- 7---7-- 7---7--|7---7-- 7------ 7------ ----7--|
  B|7---7---7---7---7---8---8---8--|8---8---8-------8-----------8--|
  G|9---9---9---9---9---9---9---9--|9---9---9-------9-----------9--|
  D|9---9---9---9---9---9---9---9--|9---9---9-------9-----------9--|
  A|7---7---7---7---7---7---7---7--|7---7---7-------7-----------7--|
  E|-------------------------------|-------------------------------|

  e|141414- 14--14- ---1515 15-----|141414- 14--14- ---1515 15-----|
  B|151515--15--15-----1717-17-----|151515--15--15-----1717-17-----|
  G|161616--16--16-----1616-16-----|161616--16--16-----1616-16-----|
  D|-------------------------------|-------------------------------|
  A|-------------------------------|-------------------------------|
  E|-------------------------------|-------------------------------|




    00:18

  e|5------ 5------ 5------ 5------|5------ 5------ 5------ 5------|
  B|5-------5-------5-------5------|7-------7-------7-------7------|
  G|5-------5-------5-------5------|7-------7-------7-------7------|
  D|7-------7-------7-------7------|7-------7-------7-------7------|
  A|7-------7-------7-------7------|5-------5-------5-------5------|
  E|5-------5-------5-------5------|-------------------------------|

  e|------- ------- ------- -------|14----- 14----- 15--14- 14-----|
  B|13------13------15--13--13-----|15------15------15--15--15-----|
  G|14------14------14--14--14-----|14------14------14--14--14-----|
  D|14------14------14--14--14-----|-------------------------------|
  A|-------------------------------|-------------------------------|
  E|-------------------------------|-------------------------------|
                     Thinkin'    I   might   have        you too far.
                            that                drove                   
                          



  e|7---7-- 7---7-- 7---7-- 7---7--|7---7-- 7---7-- 7---7-- 7---7--|
  B|7---7---7---7---7---8---8---8--|7---7---8---8---8---8---8---8--|
  G|9---9---9---9---9---9---9---9--|9---9---9---9---9---9---9---9--|
  D|9---9---9---9---9---9---9---9--|9---9---9---9---9---9---9---9--|
  A|7---7---7---7---7---7---7---7--|7---7---7---7---7---7---7---7--|
  E|-------------------------------|-------------------------------|

  e|141414- 14--14- ---1515 15-----|141414- 14--14- ---1515 15-----|
  B|151515--15--15-----1717-17-----|151515--15--15-----1717-17-----|
  G|161616--16--16-----1616-16-----|161616--16--16-----1616-16-----|
  D|-------------------------------|-------------------------------|
  A|-------------------------------|-------------------------------|
  E|-------------------------------|-------------------------------|





    C                               Am
  e|8------ 8------ 8------ 8------|5------ 5------ 5------ 5------|
  B|8------ 8------ 8------ 8------|5-------5-------5-------5------|
  G|9-------9-------9-------9------|5-------5-------5-------5------|
  D10------10------10------10------|7-------7-------7-------7------|
  A10------10------10------10------|7-------7-------7-------7------|
  E|8------ 8------ 8------ 8------|5-------5-------5-------5------|

  e|8------ 8------ 8------ 8---7--|5---7-- ----7-- 5------ 5------|
  B|8-------8-------8-------8---8--|5---5-------5---5-------5------|
  G|9-------9-------9-------9---9--|5---5-------5---5-------5------|
  D|-------------------------------|-------------------------------|
  A|-------------------------------|-------------------------------|
  E|-------------------------------|-------------------------------|
            And I'm thinkin'    the love    that    laid    my  table.
                            'bout               you     on


                               (.
    Bm                         Amadd9
  e|7------ 7------ ------- ----7--|------- ------- ------- -------|
  B|7-------7-------------------5--|-------------------------------|
  G|7-------7---x---x---x---x---5--|-------------------------------|
  D|9-------9---x---x---x---x---7--|-------------------------------|
  A|9-------9---x---x---x---x---7--|-------------------------------|
  E|7-------7-------------------5--|-------------------------------|

  e|10--10- 10--10- 10----- 10-----|------- ------- ------- -------|
  B|-7---7---7---7---7-------7-----|-------------------------------|
  G|-7---7---7---7---7-------7-----|-------------------------------|
  D|-------------------------------|-------------------------------|
  A|-------------------------------|-------------------------------|
  E|-------------------------------|-------------------------------|






  e|------- ------- ------- -------|
  B|-------------------------------|
  G|-------------------------------|
  D|-------------------------------|
  A|-------------------------------|
  E|--------------------0---3---4--|




    00:38
        I told you not to wander 'round in the dark.
    I told you 'bout the swans, that they live in the park.
    Then I told you 'bout our kid, now he's married to Mabel.




    01:07

  e|------- ------- ------- -------|------- ------- ------- -------|
  B|------------------------0------|----0-------0-----------3------|
  G|--------------------0----------|0-----------0-------2-------2--|
  D|----4---7----------------------|0---------------0--------------|
  A|5-----------3---------------2--|-------------------------------|
  E|-------------------------------|--------3----------------------|



                                                    x x x   X X X

  e|------- ------- ------- -------|------- ------- ------- -------|
  B|------------------------0------|------------0-----------3------|
  G|--------------------0-------0--|----0-------0-------2-------2--|
  D|----4---7----------------------|0---------------0--------------|
  A|5-----------3------------------|2------------------------------|
  E|-------------------------------|--------3----------------------|


    
    X   x X     X

  e|------- ----3-- ------- ----3--|------- ------- ------- -------|
  B|------------3---------------3--|----------------7--------------|
  G|------------4---------------4--|-------------------------------|
  D|------------5---------------5--|--------5---5/7----------------|
  A|------------5---------------5--|-------------------------------|
  E|------------3---------------3--|-------------------------------|
   
  e|------- ------- ------- -------|------- ------- ------- -------|
  B|------------------------0------|----0-------0-----------3------|
  G|--------------------0----------|0-------------------2-------2--|
  D|----4---7----------------------|----------------0--------------|
  A|5-----------3---------------2--|-------------------------------|
  E|-------------------------------|--------3----------------------|
        Yes, I  told    you that    light   goes    up      and down.
                                the




  e|------- ----3-- ------- ----3--|------- 3------ 5------ -------|
  B|------------5---------------3--|--------3-------7--------------|
  G|------------5---------------4--|--------4-------7--------------|
  D|------------5---------------5--|--------5-------7--------------|
  A|------------3---------------5--|--------5-------5--------------|
  E|----------------------------3--|--------3----------------------|

  e|------- ------- ------- -------|------- ------- ------- -------|
  B|------------------------0------|----0-------0-----------3------|
  G|--------------------0----------|0-------------------2-------2--|
  D|----4---7----------------------|----------------0--------------|
  A|5-----------3---------------2--|-------------------------------|
  E|-------------------------------|--------3----------------------|
        Don't   notice      how the wheel   goes   'round?    
            you            


             
                C               G                   D
  e|------- ----3-- ------- ----3--|------- 3------ 5------ -------|
  B|------------5---------------3--|--------3-------7--------------|
  G|------------5---------------4--|--------4-------7--------------|
  D|------------5---------------5--|--------5-------7--------------|
  A|------------3---------------5--|--------5-------5--------------|
  E|----------------------------3--|--------3----------------------|

  e|------- ------- ------- -------|------- ------- ------- -------|
  B|------------------------0------|----0-------0-----------3------|
  G|--------------------0----------|0-------------------2-------2--|
  D|----4---7----------------------|----------------0--------------|
  A|5-----------3---------------2--|-------------------------------|
  E|-------------------------------|--------3----------------------|
        And you better      pick            up      from    the ground
                                yourself


[ Tab from: http://www.guitaretab.com/c/cream/4309.html ]
  e|------- ----3-- ------- ----3--|------- 3------ 5------ -------|
  B|------------5---------------3--|--------3-------7--------------|
  G|------------5---------------4--|--------4-------7--------------|
  D|------------5---------------5--|--------5-------7--------------|
  A|------------3---------------5--|--------5-------5--------------|
  E|----------------------------3--|--------3----------------------|

  e|------- ------- ------- -------|------- ------- ------- -------|
  B|------------------------0------|----0-------0-----------3------|
  G|--------------------0----------|0-------------------2-------2--|
  D|----4---7----------------------|----------------0--------------|
  A|5-----------3---------------2--|-------------------------------|
  E|-------------------------------|--------3----------------------|
            Before      they    the curtain     down,
                            bring



  e|------- ----3-- ------- ----3--|------- 3------ 5------ -------|
  B|------------5---------------3--|--------3-------7--------------|
  G|------------5---------------4--|--------4-------7--------------|
  D|------------5---------------5--|--------5-------7--------------|
  A|------------3---------------5--|--------5-------5--------------|
  E|----------------------------3--|--------3----------------------|

  e|------- ------- ------- -------|------- ------- ------- -------|
  B|------------------------0------|----0-------0-----------3------|
  G|--------------------0----------|0-------------------2-------2--|
  D|----4---7----------------------|----------------0--------------|
  A|5-----------3---------------2--|-------------------------------|
  E|-------------------------------|--------3----------------------| ....

  e|------- ------- ------- -------|------- ------- ------- -------|
  B|-------------------------------|-----------------------B15R14-B|
  G|-------------------------------|-------------------------------|
  D|-------------------------------|-------------------------------|
  A|-------------------------------|-------------------------------|
  E|-------------------------------|-------------------------------|
        Yes,            they    the curtain     down.
            before          bring


    SOLO
    01:39

  e|------- ------- ------- -------|----10- ------- ------- ----10-|
  B|15R14-B-15--14B15-~-----13-----|-------------------------------|
  G|----------------------------14-|1214----1412-10-~-----/-11-----|
  D|-------------------------------|--B-------R---------12---------|
  A|-------------------------------|-------------------------------|
  E|-------------------------------|-------------------------------|



  e|--12B13R12----- ------- 14B15--|15R14-B 15R14-~ ------- -------|
  B|------------15------12---------|------------------------15-----|
  G|14-----------------------------|----------------------------14-|
  D|-------------------------------|-------------------------------|
  A|-------------------------------|-------------------------------|
  E|-------------------------------|-------------------------------|


                                 B    R  P
  e13121012 ---1012 ----10- ---1213|---1210 12--10- ------- 10-----|
  BB-R-P--------------------10-----|--------------------10-----/15-|
  G|-------------------------------|-------------------------------|
  D|-------------------------------|-------------------------------|
  A|-------------------------------|-------------------------------|
  E|-------------------------------|-------------------------------|


                                                         B    B   B
  e|----13- 15161513------- -------15161513 15--13- ---1617 16171617
  B|----------B-R-P-----15--15-----|-B-R-P----------15-------------|
  G|-------------------------------|-------------------------------|
  D|-------------------------------|-------------------------------|
  A|-------------------------------|-------------------------------|
  E|-------------------------------|-------------------------------|


     B   B   B B P                                      B      R 
  e1617161715161513 ------- -------|----17- ------- ---1719 ----17-|
  B|--------------------15------15-|1719----191715-----------------|
  G|-----------------------/16-----|--B-------R--------------------|
  D|-------------------------------|-------------------------------|
  A|-------------------------------|-------------------------------|
  E|-------------------------------|-------------------------------|



  e|--B-R-- ------- ------- -------|------- ------- --B---- ---1415|
  B|171817--15------15--------1515-|--1515--15------1819---------B-|
  G|------------16----------16-----|16----------16-----------------|
  D|-------------------------------|-------------------------------|
  A|-------------------------------|-------------------------------|
  E|-------------------------------|-------------------------------|
                                                            Yeah

                                                    x   x x x x x x

  e|--1415- 1415--1415\13-- 101310-|------- ------- ------- ---10--|
  B|----B-----B-----B------------13|---13-------------------1012-10|
  G|-------------------------------|1214-14\1210--------------H----H
  D|-------------------------------|--/---------12--12-------------|
  A|-------------------------------|-------------------------------|
  E|-------------------------------|-------------------------------|
        yeah            yeah


    x x x x x x x x

  e|-10---- -------|
  B|12-------------|
  G|---1210--P---P-|
  D|-----P-12101210|
  A|---------------|
  E|---------------|



    02:10

  e|------- ------- ------- -------|------- ------- ------- -------|
  B|-------------------------------|-------------------------------|
  G|-------------------------------|-------------------------------|
  D|-------------------------------|-------------------------------|
  A|12-----------------------------|-------------------------------|
  E|-------------------------------|-------------------------------|

  e|------- ------- 5------ 5------|5------ 5------ 5------ 5------|  
  B|----------------5-------5------|7-------7-------7-------7------|
  G|----------------5-------5------|7-------7-------7-------7------|
  D|----------------7-------7------|7-------7-------7-------7------|
  A|----------------7-------7------|5-------5-------5-------5------|
  E|----------------5-------5------|-------------------------------|
                   
  e|------- ------- ------- -------|14----- 14----- 14----- 14-----|
  B|13------13------15--13--13-----|15------15------15------15-----|
  G|14------14------14--14--14-----|14------14------14------14-----|
  D|14------14------14--14--14-----|-------------------------------|
  A|-------------------------------|-------------------------------|
  E|-------------------------------|-------------------------------|
                    Talkin'     a   girl    that        quite   like 
                            'bout               looks     




  e|------- ----12- ----12- 12-----|14----- ----15- ------- -------|
  B|-------------------------------|----------------12--12-1210-810|
  G|--------1416----1416-------1416|----14B16--------------B-R-\-H-|
  D|----------B-------B----------B-|-------------------------------|
  A|-------------------------------|-------------------------------|
  E|-------------------------------|-------------------------------|

  e|141414- 14--14- ---1515 15-----|141414- 14-1414 ---1515 15-----|
  B|151515--15--15-----1717-17-----|151515--15-1515----1717-17-----|
  G|161616--16--16-----1616-16-----|161616--16-1616----1616-16-----|
  D|-------------------------------|-------------------------------|
  A|-------------------------------|-------------------------------|
  E|-------------------------------|-------------------------------|
    you.



   

  e|5------ 5------ 5------ 5------|5------ 5------ 5---5-- 5---7--|
  B|5-------5-------5-------5------|7-------7-------7---7---7---8--|
  G|5-------5-------5-------5------|7-------7-------7---7---7---9--|
  D|7-------7-------7-------7------|7-------7-------7---7---7---9--|
  A|7-------7-------7-------7------|5-------5-------5---5---5---7--|
  E|5-------5-------5-------5------|-------------------------------|

  e|------- ------- ------- -------|14----- 14----- 15--14- -------|
  B|13------13------15--13--13-----|15------15------15--15---------|
  G|14------14------14--14--14-----|14------14------14--14---------|
  D|14------14------14--14--14-----|-------------------------------|
  A|-------------------------------|-------------------------------|
  E|-------------------------------|-------------------------------|
                She didn't  have    time    to  wait    in  the queue.    
                                the                 
                          



  e|7------ 7---7-- 7---7-- ----7--|7------ 7------ 7------ 7------|
  B|7-------7---7---7---8-------8--|7-------7-------8-------8------|  
  G|9-------9---9---9---9-------9--|9-------9-------9-------9------|
  D|9-------9---9---9---9-------9--|9-------9-------9-------9------|
  A|7-------7---7---7---7-------7--|7-------7-------7-------7------|
  E|-------------------------------|-------------------------------|

  e|14--14- 14-1414 ---1515 15-1414|141414- 14-1414 ---1515 15-----|
  B|15--15--15-1515----1717-17-1515|151515--15-1515----1717-17-----|
  G|16--16--16-1616----1616-16-1616|161616--16-1616----1616-16-----|
  D|-------------------------------|-------------------------------|
  A|-------------------------------|-------------------------------|
  E|-------------------------------|-------------------------------|

  e|------- ------- ------- -------|------- ------- ------- -------|
  B|---------------B17R15---12-----|-------------------------------|
  G|----------------------------B16R14--12-------------------------|
  D|-------------------------------|--------14--12-----------------|
  A|-------------------------------|----------------14\1210-12P10--|
  E|-------------------------------|-----------------------------12|
               





  e|8------ ------- 8---8-- 8---5-5|5---5-5 5-----5 5-----5 5-----5|
  B|8------ ------- 8---8-- 8---5-5|5---5-5-5-----5-5-----5-5-----5|
  G|9---------------9---9---9---5-5|5---5-5-5-----5-5-----5-5-----5|
  D10--------------10--10--10---7-7|7---7-7-7-----7-7-----7-7-----7|
  A10--------------10--10--10---7-7|7---7-7-7-----7-7-----7-7-----7|
  E|8-------------- 8---8-- 8---5-5|5---5-5-5-----5-5-----5-5-----5|
               
  e|------- 8------ ------- ----7--|8------ 8------ 8------ 8------|
  B|--------8-------------------8--10--12--10--12--10------10------|
  G|--------9-------------------9--|9---9---9---9---9-------9------|
  D|-------------------------------|-------------------------------|
  A|-------------------------------|-------------------------------|
  E|-------------------------------|-------------------------------|

  e|------- ------- ------- -------|------- ------- ------- -------|
  B|-------------------------------|-------------------------------|
  G|-------------------------------|-------------------------------|
  D|10--------------\--------------|-------------------------------|
  A|-------------------------------|-------------------------------|
  E|-------------------------------|-------------------------------|
                She cried       her life    since   fell    the cradle.
                        away                    she     off


                               (.

  e|7------ 7------ ------- ----7--|------- ------- ------- -------|
  B|7-------7-------------------5--|-------------------------------|
  G|7-------7---x---x---x---x---5--|-------------------------------|
  D|9-------9---x---x---x---x---7--|-------------------------------|
  A|9-------9---x---x---x---x---7--|-------------------------------|
  E|7-------7-------------------5--|-------------------------------|

  e|10--10- 10----- 10----- 10-----|------- ------- ------- -------|
  B|-7---7---7-------7-------7-----|-------------------------------|
  G|-7---7---7-------7-------7-----|-------------------------------|
  D|-------------------------------|-------------------------------|
  A|-------------------------------|-------------------------------|
  E|-------------------------------|-------------------------------|

  e|------- ------- 10--12- 10-----|------- ------- ------- -------|
  B|----------------------------12-|-------------------------------|
  G|-----------/11-----------------|-------------------------------|
  D|-------------------------------|-------------------------------|
  A|-------------------------------|-------------------------------|
  E|-------------------------------|-------------------------------|









        B  Bend
        R  Release
        /  Slide up
        \  Slide down
        H  Hammer-on
        P  Pull-off
        ~  Vibrato
        +  Harmonic
        x  Mute note
        .  Play note like a dot in standard notation
        ^  Ties two notes together
        (. Pause



Related for Badge tab
Badge chords by Cream