Song name
# A B C D E F G H I J K L M N O P Q R S T U V W X Y Z

Creed - My Sacrifice Acoustic tab

----------------------------------------------------------------------------
	        My Sacrifice (Acoustic Version) - Creed
----------------------------------------------------------------------------
Tabbed by: James
Email: the.master.ofpuppets@hotmail.com

Tuning: D A D A D D

As requested by Raymund01. This tab is very similar to the normal one but its slightly
I dont know how many acoustic versions there are but the one i have is played like this.
you dont have it, add my MSN ^^ and i can send it to u, or email it to u. A good way to 
out if theyre the same is skipping to 2:50, at this point the crowd all cheer even
the song is over, also the entire song sounds a little shit to be honest coz of the poor 
Scotts voice is weird but its still played well.
Also please rate this tab well coz it will be at the bottom of the list and it will need
stars to stand out

This is how u tune it to the weird tuning VV
e|------------------------------------------------------0~~~---------------|
B|-----------------------------------0~~~---------------0~~~---------------|
G|-------------------------0~~~--------------------------------------------|
D|--0~~~-----------------------------0~~~----------------------------------|
A|-------------------------0~~~--------------------------------------------|
E|--0~~~-------------------------------------------------------------------|
    | \play until same note/|        | \Play until same/|
    |                       |        |                  |Tune e string down
    |                       |        |Tune B string up or away
    |                       |Tune G string up or away from you
    |Tune E string down, or towards you

Intro:
d|-----------0----------------------------0----------|
d|-------------0----------------------------0--------|
A|-----4---------4----------------12----------12-----|
D|-------4---------4-----------------12----------12--|
A|---2-----2--------------0----10------10------------|
D|---------------------------------------------------|

d|--------0-0-0-0-0~~--------0-0-0-0-0~~--0--0----------|
d|--------0-0-0-0-0~~--------0-0-0-0-0~~--0--0----------|
A|--------5-4-4/5-5~~--------5-4-4/9-9~~--9/10----------|
D|--0-0---0-0-0-0-0~~--0-0---0-0-0-0-0~~--0--0----------|
A|--0-0---5-4-4/5-5~~--0-0---5-4-4/9-9~~--9/10----------|
D|--0-0---0-0-0-0-0~~--0-0---0-0-0-0-0~~--0--0----------|
    ^ v   ^ ^ ^   ^    ^ v   ^ ^ ^   ^

d|-------------0--------------------------0--------------|
d|---------------0--------------------------0------------|
A|-------4---------4--------------x-----------12---------|
D|---------4---------4--------------12-----------12------|
A|--0--2-----2--------------0--10------10----------------|
D|-------------------------------------------------------|

d|--------0-0-0-0-0~~--0-0-0-0-0-0-0--0-0-0-0-0--0-0-0--0-0----|
d|--------0-0-0-0-0~~--0-0-0-0-0-0-0--0-0-0-0-0--0-0-0--0-0----|
A|--------5-4-4/5-5~~--5-4/5-5-4/5/7--5-4-4/5-5--5-4/5--5-4----|
D|--0-0---0-0-0-0-0~~--0-0-0-0-0-0-0--0-0-0-0-0--0-0-0--0-0-0--|
A|--0-0---5-4-4/5-5~~--5-4/5-5-4/5/7--5-4-4/5-5--5-4/5--5-4-0--|
D|--0-0---0-0-0-0-0~~--0-0-0-0-0-0-0--0-0-0-0-0--0-0-0--0-0-0--|
    ^ v   ^ ^ ^   ^    ^ v   ^ ^      ^ ^ ^   ^  ^ ^    ^ ^ ^

d|------------0--0-0--0--//-0--0---0---0--0---0---0--0---0---0--0----------|
d|------------0--0-0--0--//-0--0---0---0--0---0---0--0---0---0--0----------|
A|------------0--0-0--0--//-0--0---0---0--0---0---0--0---0---0--0----------|
D|--4--(4)(4)-4--4-4--4--//-12-12--12--12-12--12--12-12--12--12-12---------|
A|--2---2--2--2--2-2--2--//-10-10--10--10-10--10--10-10--10--10-10---------|
D|-------------------------------------------------------------------------|
    ^   ^  v  ^  ^ v  ^     ^  v   ^   ^  v   ^    v  ^  ^   ^  V

Then repeat that for the verse
then this is the chorus:
d|--0--0-0--0--0-0--4/7-7--0-0-0--0--0-0--0---0--0-0--0-0-0-0-0--|
d|--0--0-0--0--0-0--0-0-0--0-0-0--0--0-0--0---0--0-0--0-0-0-0-0--|
A|--0--0-0--0--0-0--0-0-0--0-0-0--0--0-0--0---0--0-0--0-0-0-0-0--|
D|--0--0-0--0--0-0--0-0-0--7-7-7--7--7-7--7---4--4-4--4-4-4/7-7--|
A|--5--5-5--5--5-5--5-0-0--4-4-4--4--4-4--4---2--2-2--2-2-2/5-5--|
D|--0--0-0--0--0-0--0-0-0--0-0-0--0--0-0--0---0--0-0--0-0-0-0-0--|
    ^  ^ ^  v  ^ v  ^   ^  ^ ^ ^  v  ^ v  ^   ^  ^ ^  ^ v ^   ^

d|-------------------------|
d|-------------------------|
A|-------------------------|
D|-------------------------|
A|--5--5--5-5--5p3-0-3-----|
D|--5--5--5-5--5p3-0-3-----|

Then repeat verse and chorus and play:
d|---0-0-0-0-0-0-0-0-0-0-0-0--0-0-0-0-0-0-0-----| x2
d|---0-0-0-0-0-0-0-0-0-0-0-0--0-0-0-0-0-0-0-----|
A|---9\7-7-7\5-5-5\4-4-2/4-4--5\4-4/7-7\5-5-----|
D|---0-0-0-0-0-0-0-0-0-0-0-0--0-0-0-0-0-0-0-----|
A|---9\7-7-7\5-5-5\4-4-2/4-4--5\4-4/7-7\5-5-----|
D|---0-0-0-0-0-0-0-0-0-0-0-0--0-0-0-0-0-0-0-----|

d|---0---0---0---0------0---0---0---0------0---0---0---0----0---0---0---0--|
d|---0---0---0---0------0---0---0---0------0---0---0---0----0---0---0---0--|
A|--13--13--13--13-----13--13--13--13-----13--13--13--13---13--13--13--13--|
D|---0---0---0---0------0---0---0---0------0---0---0---0----0---0---0---0--|
A|--13--13--13--13-----13--13--13--13-----13--13--13--13---13--13--13--13--|
D|------------------0-------------------0----------------0-----------------|

d|---------|
d|---------|
A|---------|
D|--0-0-0--|
A|--0-0-0--|
D|--0-0-0--|

Then play this variation of the chorus
d|--0--0-0--0--0-0--4/7-7--0-0-0--0--0-0--0---0--0-0--0-0-0--------|
d|--0--0-0--0--0-0--0-0-0--0-0-0--0--0-0--0---0--0-0--0-0-0-----7--|
A|--0--0-0--0--0-0--0-0-0--0-0-0--0--0-0--0---0--0-0--0-0-0---5----|
D|--0--0-0--0--0-0--0-0-0--7-7-7--7--7-7--7---4--4-4--4-4-4--------|
A|--5--5-5--5--5-5--5-0-0--4-4-4--4--4-4--4---2--2-2--2-2-2/5------|
D|--0--0-0--0--0-0--0-0-0--0-0-0--0--0-0--0---0--0-0--0-0-0--------|
    ^  ^ ^  v  ^ v  ^   ^  ^ ^ ^  v  ^ v  ^   ^  ^ ^  ^ v ^

d|-------------------------|
d|-------------------------|
A|-------------------------|
D|-------------------------|
A|--5--5--5-5--5p3-0-3-----|
D|--5--5--5-5--5p3-0-3-----|

and finish with this riff again
d|---0-0-0-0-0-0-0-0-0-0-0-0--0-0-0-0-0-0-0-----| x2
d|---0-0-0-0-0-0-0-0-0-0-0-0--0-0-0-0-0-0-0-----|
A|---9\7-7-7\5-5-5\4-4-2/4-4--5\4-4/7-7\5-5-----|
D|---0-0-0-0-0-0-0-0-0-0-0-0--0-0-0-0-0-0-0-----|
A|---9\7-7-7\5-5-5\4-4-2/4-4--5\4-4/7-7\5-5-----|
D|---0-0-0-0-0-0-0-0-0-0-0-0--0-0-0-0-0-0-0-----|

d|---0---0---0---0------0---0---0---0------0---0---0---0----0---0---0---0--|
d|---0---0---0---0------0---0---0---0------0---0---0---0----0---0---0---0--|
A|--13--13--13--13-----13--13--13--13-----13--13--13--13---13--13--13--13--|
D|---0---0---0---0------0---0---0---0------0---0---0---0----0---0---0---0--|
A|--13--13--13--13-----13--13--13--13-----13--13--13--13---13--13--13--13--|
D|------------------0-------------------0----------------0-----------------|

d|---------4/7~~~~--|
d|---------0~~~~~~--|
A|---------0~~~~~~--|
D|--0-0-0--0~~~~~~--|
A|--0-0-0--0~~~~~~--|
D|--0-0-0--0~~~~~~--|

That pretty much it, all the riffs. Rate it high, 5 stars please. peace out, have fun

| /  slide up
| \  slide down
| h  hammer-on
| p  pull-off
| ~  vibrato
| +  harmonic
| x  Mute note
============================================================================
Tap to rate this tab
 
# A B C D E F G H I J K L M N O P Q R S T U V W X Y Z