Song name
# A B C D E F G H I J K L M N O P Q R S T U V W X Y Z

Creed - On My Sleeve tab

Artist: Creed
Song: On My Sleeve (Intro)
Album: Full Circle

Tuning: C#-F#-B-E-G#-C#
So tune every snare 1,5 tone down from standard tuning.

h = hammer on
p = pull off
/ = slide up
\ = slide down


My interpretation of the intro of the song. 
Btw first post, hope it's any good.



C#|--------0-------||----------------||----------------||----------2-----|
G#|----------0-----||----1---0-------||----3---1p0-----||----3---5---3---|
E |------0-----0---||0-----0-------0-||------0-------0-||----------------|
B |--2h4---2-----4-||----------------||----0-----------||----------------|
F#|----------------||----------------||----------------||3/5---5---------|
C#|0---------------||0-----------0---||3-----------3---||----------------|



C#|--------0-------||----------------||----------------||----------------|
G#|----------0-----||----1---0-------||----3---1p0-----||----3---3/5-7---|
E |------0-----0---||0-----0-------0-||------0-------0-||----------------|
B |--2h4---2-----4-||----------------||----0-----------||----------------|
F#|----------------||----------------||----------------||3/5---5---------|
C#|0---------------||0-----------0---||3-----------3---||----------------|



C#|--------0-------||----------------||----------------||----------2-----|
G#|----------0-----||----1---0-------||----3---1v0-----||----3---5---3---|
E |------0-----0---||0-----0-------0-||------0-------0-||----------------|
B |--2^4---2-----4-||----------------||----0-----------||----------------|
F#|----------------||----------------||----------------||3/5---5---------|
C#|0---------------||0-----------0---||3-----------3---||----------------|
         The eyes around me are so cold


C#|--------0-------||----------------||----------------||----------------|
G#|----------0-----||----1---0-------||----3---1p0-----||----3-3-3-------|
E |------0-----0---||0-----0-------0-||------0-------0-||----------------|
B |--2h4---2-----4-||----------------||----0-----------||----------------|
F#|----------------||----------------||----------------||3/5---5-5-------|
C#|0---------------||0-----------0---||3-----------3---||----------------|
	 With every chance they steal my soul 


C#|--------0-------||----------------||----------------||----------2-----|
G#|----------0-----||----1---0-------||----3---1p0-----||----3---5---3---|
E |------0-----0---||0-----0-------0-||------0-------0-||----------------|
B |--2h4---2-----4-||----------------||----0-----------||----------------|
F#|----------------||----------------||----------------||3/5---5---------|
C#|0---------------||0-----------0---||3-----------3---||----------------|
	 So walk with me, Talk with me, Hold my hand I'm stumbling 


C#|--------0-------||----------------||----------------||----------------|
G#|----------0-----||----1---0-------||----3---1p0-----||----3-3-3-------|
E |------0-----0---||0-----0-------0-||------0-------0-||----------------|
B |--2h4---2-----4-||----------------||----0-----------||----------------|
F#|----------------||----------------||----------------||3/5---5-5-------|
C#|0---------------||0-----------0---||3-----------3---||----------------|
  In consequence it buries me alive 
Tap to rate this tab
 
# A B C D E F G H I J K L M N O P Q R S T U V W X Y Z