Song name
# A B C D E F G H I J K L M N O P Q R S T U V W X Y Z

Creed - Full Circle tab

Creed - "Full Circle"
From "Full Circle" Album
tuning - B F# B E G# C#
tabbed by jjhand


Acoustic Main Riff - play w/ fingers

play 3x                             4th bar each time is:
|------------------------------|     |-----------------------------|
|-----------------------3------|     |-----------------------------|
|-------------------2----------|     |-----------------------------|
|---0----0---0-----------------|     |---0----0---0------0---------|
|------------------------------|     |-----------------------------|
|-0---0--3qb-3qb--0---0---0--0-|     |-0---0--3qb-3qb--0---3qb-3qb-|




Verse 1 -
|----0---------|----------------|
|----3---------|------8b9r8-6---|
|----2---------|--------------7~|
|----0---------|----------------| rest for 8 beats then resume Main Riff
|----0---------|----------------|
|-0------------|----------------|

Lyrics: 
"Got your freedom now boy...  Who do you serve" 
"Took for granted what you should have preserved" 
"No time left, no time left, to make amends" 
"Keep burning bridges while you're buying your new friends"






Acoustic Prechorus (0:42) - play 2x           ** turn up distortion heavy at end
  B/A                       G6   G
|-------------------------|---------------------|------------------------------|
|---3-----------3---------|--------------3------|-----------------------3------|
|-------2--2--------2--2--|---0---3-3-------3---|-------------------2----------|
|-------------------------|---------------------|---0----0---0-----------------|
|-3---3-------3---3-------|-1---1---1--1----1---|------------------------------|
|-------------------------|-------------------3-|-0---0--3qb-3qb--0---0---0--0-|
         "A day of reflection hits, you're a shell, skin and bones, counting costs" 


|------------------------------|-------------------------|-------------0-------|
|-----------------------3------|---3-----------3---------|---------------3-----|
|-------------------2----------|-------2--2--------2--2--|---0---3-3-------3---|
|---0----0---0-----------------|-------------------------|---------------------|
|------------------------------|-3---3-------3---3-------|-1---1-----1--(x\)---|
|-0---0--3qb-3qb--0---0---0--0-|-------------------------|--------------(x\)---|
          "Is it worth your soul?    A day of reflection hits"


pick scrape by Electric Guitar comes in at the end of above line






Chorus - both parts strum in 16th note rhythm

Guitar 1
  B5             D5             Cadd9          E5 
|-0------------|--------------|-3------------|---------------|
|-3------------|-6------------|-3------------|---------------|
|-2------------|-5------------|-0------------|---------------|
|-0------------|-3------------|-2------------|-5-------------| play
|-0------------|-3------------|-3------------|-5-------------|  2x
|-0------------|--------------|--------------|-5-------2b3r2-|
|
|Guitar 2 
|--------------|--------------|--------------|---------------|
|--------------|--------------|--------------|---------------|
|-14-----------|-17-----------|-17-----------|-16------------| play
|--------------|--------------|--------------|---------------|  2x
|-12-----------|-15-----------|-15-----------|-14------------|
|--------------|--------------|--------------|---------2b3r2-|

"It's funny how times can change, rearrange and distance makes the pain fade away" 
"So important then, doesn't matter now Both feet on the ground, Come full circle"
"Yeah, come full circle"






Repeat Verse with Verse 2 Lyrics:

"No access granted now boy, you've been denied"
"Jump the fence to see what's on the other side"
"Are you wanted, are you wanted? The question is," 
"could second chances mean another impression?"

Repeat Prechorus with same lyrics



Repeat Chorus (2:05)




Bridge (Electric) -  PM the notes with ***
|-------------------------------|---------------------------------|
|-------------------------------|---------------------------------|
|-------------------------------|---------------------------------|
|-------------------7-----------|--------------------7------------|
|-0----0-3-5-0----0-5-7-0-7-8-7-|-0---0-0-3-5-0----0-5-7-0--------|
|-0----0-3-5-0----0---7-0-7-8-7-|-0---0-0-3-5-0----0---7-0-5PH~~--|

"Circle..."

|-------------------------------|---------------------------------|
|-------------------------------|---------------------------------|
|-------------------------------|---------------------------------|
|-------------------7-----------|---------------------------------|
|-0----0-3-5-0----0-5-7-0-7-8-7-|-8-5-0-4-7-0-8-5-0-4-7-0-******--|
|-0----0-3-5-0----0---7-0-7-8-7-|-8-5-0-4-7-0-8-5-0-4-7-0-875870--|
"Come Full Circle..."

|-------------------------------|---------------------------------|
|-------------------------------|---------------------------------|
|-------------------------------|---------------------------------|
|-------------------7-----------|--------------------7------------|
|-0----0-3-5-0----0-5-7-0-7-8-7-|-0---0-0-3-5-0----0-5-7-0--------|
|-0----0-3-5-0----0---7-0-7-8-7-|-0---0-0-3-5-0----0---7-0-7b8r7~-|

"I got one foot stuck in heaven yeah, one foot stuck in hell"

|-------------------------------|---------------------------------|
|-------------------------------|---------------------------------|
|-------------------------------|---------------------------------|
|-------------------7-----------|---------------------------------|
|-0----0-3-5-0----0-5-7-0-7-8-7-|-8-5-0-4-7-0-8-5-0-4-7-0-******--|
|-0----0-3-5-0----0---7-0-7-8-7-|-8-5-0-4-7-0-8-5-0-4-7-0-875870--|

"I looked at God, he winked at me, I made this mess myself"      

|-------------------------------|---------------------------------|
|-------------------------------|---------------------------------|
|-------------------------------|---------------------------------|
|-------------------7-----------|--------------------7------------|
|-0----0-3-5-0----0-5-7-0-7-8-7-|-0---0-0-3-5-0----0-5-7-0-5PH_b7~|
|-0----0-3-5-0----0---7-0-7-8-7-|-0---0-0-3-5-0----0---7-0--------|

"Don't be surprised and don't deny, hear every word I say"

|-------------------------------|---------------------------------|
|-------------------------------|---------------------------------|
|-------------------------------|---------------------------------|
|-------------------7-----------|---------------------------------|
|-0----0-3-5-0----0-5-7-0-7-8-7-|-8-5-0-4-7-0-8-5-0-4-7-0-******--|
|-0----0-3-5-0----0---7-0-7-8-7-|-8-5-0-4-7-0-8-5-0-4-7-0-875870--|

"Close the door and don't look back or you will fade away"






Chorus Refrain (2:58) - play 2x with Chorus lyrics on repeat
|-----------0------0---0-0-|-0-----------|------------0--------------|---------------------|
|--------------3---3---3-3-|-3-------x-x-|-3----3---3----3---3---3-3-|---------------------|
|-----2---2------2-2---2-2-|-2-------x-x-|-2----2---2------2-2---2-2-|-0-------------------|
|------------------0-------|-------------|---------------------------|-5---------------5---|
|--------------------------|-------------|-3----3---3--------3---3-3-|-5-------------5-----|
|-0------------------------|-3-----------|---------------------------|-5-----0-3-3/5-----3~|




Play Chorus Again (3:21)



Solo (played with Chorus Chords on Rhythm Guitar)
|---------------------------------|------------13-14-15---------|
|-10------10--13----13------------|-------13-15--------15b18----|
|-10------10--12b14-12b14r12-10~~-|----/14----------------------|
|-----12--------------------------|-----------------------------|
|---------------------------------|-----------------------------|
|---------------------------------|-----------------------------|


|-----------------15--15-------------------------------------|
|--15~~---13h15p13--15----13---------------------------------|
|-----------------------14--14-12h14p12-10h12p10--10---------|
|-----------------------------------------------12--12-12p10-|
|------------------------------------------------------------|
|------------------------------------------------------------|


|---------------------------------------|--------------------------|
|-----10qb------------------------------|--------------------------|
|-----10qb---------10PH-----------------|--------------------------|
|-12~------12p10h12----12-11-10---------|--------------------------|
|------------------------------12-11-10-|-8PH~----------------0-0--|
|---------------------------------------|-------12\0----------0-0--|


|---------------------------------------|-10---10---10---10-------------------------10-|
|-------------------------------------9-|---9-9--9-9--9-9--9-9-------------------------|
|---------------------------------------|----------------------13p12-12p10-13p12p10----|
|---------------------------------------|----------------------------------------------|
|---------------------------------------|----------------------------------------------|
|-3v(2)PH--3PH--3^(5)PH--3PH_b--2v(0)---|----------------------------------------------|

Ending:
|-13----------------------------------------|---------|
|-13-------10---13-15-15b18r15--------------|---------|
|-----12b14--/14--------------10--12--10/12-|---------|
|-------------------------------12--12------|---------|
|-------------------------------------------|-0-------| lead guitar plays slide
|-------------------------------------------|-0-(12\)-| rhythm plays open notes


key
| /  slide up
| \  slide down
| h  hammer-on
| p  pull-off
| b  bend note
| r  release bent note
| ~  vibrato
| x  Mute note
| v  bend note down in pitch with tremelo bar
| ^  bend note up in pitch with tremelo bar
| PH pinch harmonic
| () hold note from previous bar, or a second guitar part is overlapping
Tap to rate this tab
# A B C D E F G H I J K L M N O P Q R S T U V W X Y Z