Song name
# A B C D E F G H I J K L M N O P Q R S T U V W X Y Z

Creed - Lullaby tab

Help us improve GuitareTab! Take a short survey!
Gtr I (D A D G B E) - 'Main Guitar'
Gtr II (E A D G B D) - 'Second Guitar'


 Intro
  Slowly Q.=48
  Bm       A         G        D5       Bm       A          G        Dsus2
 6/8
  Gtr I
   E.  S E  E. S E   E. S +E  Q.        E.  S E E. S E   a E. S +E  S E.   E
|------------------|-----------------|-----------------|---------------------||
|------------------|-----------------|-----------------|---------------------||
|------------------|-----------------|----------9--7---|------------7h9------||
|-12--11---11--9---|-9--7-(7)-7------|-12--11------9---|-7h9--7-(7)----------||
|------------------|-----------------|-----------------|-----------------5---||
|--9-----9--7----0-|-5-----5--0--7-0-|--9-----0-7----0-|---5-----5--0------7-||
   Q     E  Q    E   Q     E  E. S E    Q     E Q    E     Q     E  E.   S E


 Verse
  $
  Bm       A         G        D5       Bm       A
   E.  S E  E. S E   E. S +E  Q.        E.  S E E. S E
|------------------|-----------------|-----------------|
|------------------|-----------------|-----------------|
|------------------|-----------------|----------9--7---|
|-12--11---11--9---|-9--7-(7)-7------|-12--11p9----9p7-|
|------------------|-----------------|-----------------|
|--9-----9--7----0-|-5-----5--0--7-0-|--9-----0-7----0-|
   Q     E  Q    E   Q     E  E. S E    Q     E Q    E


    G        D5       Bm       A         G        D5
  a E. S +E  Q    E    E.  S E  E. S E   E. S +E  Q.
|-------------------|------------------|-----------------|
|-------------------|------------------|-----------------|
|------------7------|------------------|-----------------|
|-7h9--7-(7)--------|-12--11---11--9---|-9--7-(7)-7------|
|---------------5---|------------------|----------0------|
|---5-----5--0----7-|--9-----9--7----0-|-5-----5--0--7-0-|
    Q     E  E. S E    Q     E  Q    E   Q     E  E. S E


  Bm       A          G        D5      Em      G        D
   E.  S E E. S E   a E. S +E  E.S E   E. S E  E. S E   Q.     a  E. S E
|-----------------|------------------|----------------|-------------------||
|-----------------|------------------|----------------|-------------------||
|----------9--7---|------------7h9---|----------------|-------------------||
|-12--11p9----9p7-|-7h9--7-(7)---0---|-5--4----9--7---|-4------4--5--4p0--||
|----------0------|----------------0-|------2---------|----0--------------||
|--9-----0------0-|---5-----5--0-----|-2----2/-5----0-|-0----0---(0)------||
   Q     E Q    E     Q     E  E.S E   Q    E  Q    E   E. S E   +Q.


 Chorus
  Em     G        Bm       A        Em     G
  E. S E E. S E    E.  S E E. S E   E. S E E. S E
|---------------|-----------------|---------------|
|---------------|-----------------|---------------|
|---------------|-----------------|---------------|
|-5--4---9--7---|-12--11---9--7---|-5--4---9--7---|
|---------------|---------------0-|------5--------|
|-2----2S5----5S|==9-----0-7----0-|-2----5-5----9-|
  Q    E Q    E    Q     E Q    E   Q    E Q    E


  Bm       A         D         Bm           Em     G
   E.  S E  E. S E    E.  S  E  E.  S  E    E. S E E. S E
|------------------|----------------------|---------------|
|------------------|----------------------|---------------|
|------------------|-11--12---------------|---------------|
|-12--11---11--9---|-----------11--11h12--|-5--4---9--7---|
|------------------|----------------------|------5--------|
|--9-----0--7----0-|-12-----12--9-----(9)-|-2----5-5----0-|
   Q     E  Q    E    Q      E  Q     +E    Q    E Q    E


                             To Coda
  D                   Em     G        D
   Q.     a  E. S E   E. S E E. S E    Q.     a  E. S E
|-------------------|---------------|-------------------|
|-------------------|---------------|-------------------|
|-------------------|---------------|-------------------|
|--4------4h=5--4p0-|-5--4---9--7---|--4------4h=5--4---|
|-----0-------------|------5--------|-----0-----------0-|
|-(0)---0---(0)-----|-2----5-5----0-|-(0)---0---(0)-----|
  +E. S E   +Q.       Q    E Q    E   +E. S E   +Q    E


                               Interlude
  Em     G         D              D               Bm       A
                  5/8          6/8
  E. S E E. S E    Q.   +Q      a E E E S S E E    E.  S E  E. S E
|---------------||-----------||-----------------|------------------|
|---------------||-----------||-----------------|------------------|
|---------------||-----------||-----------------|------------------|
|-5------9--7---||-4----(4)--||-4h5-4-------0---|-12--11---11--9---|
|----2-5--------||-----------||---5---0-2h4---0-|------------------|
|-2----5-5----0-||-0----(0)--||-----------------|--9-----0--7----0-|
  Q    E Q    E    Q.   +Q        Q   E Q.         Q     E  Q    E


                                            D.S. al Coda
  G        D5       Bm       A            G        D5
  E. S +E  Q.        E.  S E E.  S  E   a E. S +E  Q.
|-----------------|-------------------|-------------------||
|-----------------|-------------------|-------------------||
|-----------------|----------9---7----|------------7------||
|-9--7-(7)-7------|-12--11p9-9--(9)p7-|-7h9--7-(7)--------||
|-------------0---|--------0----------|---------------5---||
|-5-----5--0----0-|--9-----0-7------9-|---5-----5--0----0-||
  Q     E  E. S E    Q     E Q      E     Q     E  E. S E


  &
  D                    Em     G        D
  Q.      S  S a E E   E. S E E. S E    Q.     a  E  E E
|--------------------|---------------|-------------------|
|--------------------|---------------|-------------------|
|--------------------|---------------|-------------------|
|-4-------4h=5-5h7-0-|-5--4---9--7---|--4------4h=5--4-0-|
|----0---------------|------5--------|-----0-------------|
|-0----0-(0)---------|-2----5-5----0-|-(0)---0---(0)-----|
  E. S E +Q.           Q    E Q    E   +E. S E   +Q.


  Em     G        D
  E. S E E. S E    Q.     a  E  E E
|---------------|-------------------||
|---------------|-------------------||
|---------------|-------------------||
|-5--4---9--7---|--4------4h=5--4-0-||
|------5--------|-----0-------------||
|-2----5-5----0-|-(0)---0---(0)-----||
  Q    E Q    E   +E. S E   +Q.


 Outro
  Em           G            D                           Em         G
    E.   S E   E.   S E      Q.          S  S a E E     E.   S E   E.   S E
|-----------------------|---------------------------|-----------------------|
|-----------------------|---------------------------|-----------------------|
|-----------------------|---------------------------|-----------------------|
|---5----4-----9----7---|----4-----------4h=5-5h7-0-|---5----4-----9----7---|
|----------5------------|---------0-----------------|----------5------------|
|---2------5---5------0-|---(0)-----0---(0)---------|---2------5---5------0-|
|   Q      E   Q      E     +E.   S E   +Q.             Q      E   Q      E
|
| Gtr II
| a E  E   E a E  E   E   a  E  E   E a  E      E E   a E  E   E a E  E   E
|----------0----------0-|-----------0-------------0-|----------0----------0-|
|-7h8--7-----7h8--7-----|-7h=8--7-----7h=8------7---|-7h8--7-----7h8--7-----|
|-----------------------|---------------------------|-----------------------|
|-----------------------|---------------------------|-----------------------|
|-----------------------|---------------------------|-----------------------|
|-----------------------|---------------------------|-----------------------|


  D                         Em             G
    Q.       a  E  E E       E.    S  E     E.    S  E
|----------------------|-------------------------------|
|----------------------|-------------------------------|
|----------------------|-------------------------------|
|---4--------4h=5--4-0-|-----5-----4--------9-----7----|
|--------0-------------|--------------5----------------|
|---0------0---(0)-----|-----2--------5-----5--------0-|
|   E.   S E   +Q.           Q        E     Q        E
|
| a E  E   E a  E  E E    a  E   E    E  a  E   E    E
|----------0---------0-|-16h17--16------16h17--16------|
|-7h8--7-----7h=8--7---|-------------15-------------15-|
|----------------------|-------------------------------|
|----------------------|-------------------------------|
|----------------------|-------------------------------|
|----------------------|-------------------------------|


     D
      Q.          a  E   E  E
|-----------------------------|
|-----------------------------|
|-----------------------------|
|-----4-----------4h=5---4--0-|
|-----------0-----------------|
|-----0--------0----(0)-------|
|     E.    S  E    +Q.
|
|  a  E   E    E  a  E   E  E
|-16h17--16------16h17--16----|
|-------------15-----------15-|
|-----------------------------|
|-----------------------------|
|-----------------------------|
|-----------------------------|


  Em                G
      E.    S  E     E.    S  E
|-------------------------------|
|-------------------------------|
|-------------------------------|
|-----5-----4--------9-----7----|
|--------------5----------------|
|-----2--------5-----5--------0-|
|     Q        E     Q        E
|
|  a  E   E    E  a  E   E    E
|-16h17--16------16h17--16------|
|-------------15-------------15-|
|-------------------------------|
|-------------------------------|
|-------------------------------|
|-------------------------------|


     D                                Em         G
      Q.             S  S a  E  E     E.   S E   E.   S E
|---------------------------------|-----------------------|
|---------------------------------|-----------------------|
|---------------------------------|-----------------------|
|-----4--------------4h=5-5h=7--0-|---5----4-----9----7---|
|-----------0---------------------|-----------------------|
|----(0)-------0----(0)-----------|---2------5---5------0-|
|    +E.    S  E    +Q.               Q      E   Q      E
|
|  a  E   E    E  a  E       E  E   a E  E   E a E  E   E
|-16h17--16------16h17------16----|----------0----------0-|
|-------------15---------------15-|-7h8--7-----7h8--7-----|
|---------------------------------|-----------------------|
|---------------------------------|-----------------------|
|---------------------------------|-----------------------|
|---------------------------------|-----------------------|


  D
   H.          a E E E S S E E   H.
|------------|-----------------|-------*|
|------------|-----------------|-------*|
|------------|-----------------|-------*|
|------------|-4h5-4-------0---|-0-----*|
|--9---------|---5---0-2h4---0-|-------*|
|-(0)--------|-----------------|-0-----*|
| +H.            Q   E Q.        H.
|
|  Q.   Q.       W               W
|------------|-----------------|-------*|
|--7---------|-----------------|-------*|
|------------|-----------------|-------*|
|------------|-----------------|-------*|
|------------|-----------------|-------*|
|------------|-----------------|-------*|




--------------------------------------------------------------------------------


Duration Legend
---------------
W - whole; H - half; Q - quarter; E - 8th; S - 16th; T - 32nd; X - 64th; a - acciaccatura
+ - note tied to previous; . - note dotted; .. - note double dotted
Uncapitalized letters represent notes that are staccato (1/2 duration)
Irregular groupings are notated above the duration line
Duration letters will always appear directly above the note/fret number it represents the
duration for.  Duration letters with no fret number below them represent rests.  Multi-
bar rests are notated in the form Wxn, where n is the number of bars to rest for.  Low
melody durations appear below the staff

Tablature Legend
----------------
 h   - hammer-on
 p   - pull-off
 b   - bend
 pb  - pre-bend
 r   - bend release (if no number after the r, then release immediately)
 /\  - slide into or out of (from/to "nowhere")
 s   - legato slide
 S   - shift slide
 - natural harmonic
[n]  - artificial harmonic
n(n) - tapped harmonic
 ~   - vibrato
 tr  - trill
 T   - tap
 TP  - trem. picking
 PM  - palm muting
\n/  - tremolo bar dip; n = amount to dip
 \n  - tremolo bar down
 n/  - tremolo bar up
/n\  - tremolo bar inverted dip
 =   - hold bend; also acts as connecting device for hammers/pulls
 <> - volume swell (louder/softer)
 x   - on rhythm slash represents muted slash
 o   - on rhythm slash represents single note slash

Misc Legend
-----------
 |  - bar
||  - double bar
||o - repeat start
o|| - repeat end
*|  - double bar (ending)
 :  - bar (freetime)
 $  - Segno
 &  - Coda
Tempo markers -  = BPM(8/16=s8/s16), where s8 = swing 8ths, s16 = swing 16ths


Related for Lullaby tab