Song name
# A B C D E F G H I J K L M N O P Q R S T U V W X Y Z

Creed - Lullaby tab

Title:    Lullaby
Artist:   Creed
Album:    Weathered

Tuning: Standard

h: Hammer on  p: Pull off  s: slide to app. note 

Creed - Lullaby
This is my own work.

lick 1                                    ()very faint
e|---------------------------|------------------------------|
b|---------------------------|--------5--------------2h3----| 
g|-7--6s4--4--4s2--2h4-2-2---|-7--6s4---4s2--2h4--2--2------|
d|-9--7s5-----5s4------------|-9--7s5---5s4-------------(0)-|
a|---------------------------|--------------------------5p0-| 
E|---------------------------|------------------------------|

lick 2
e|------------------------------|
b|------------------------------|
g|------------------------------|
d|--5----5--7----7--4--4h5-4----|
a|--7--7----9--9----5-----------|
E|----------------------------5-|

lick 3
d|-4s5--4--0--------0--|
a|------------2s4-5----|
E|---------3-----------|

lick 4
e|-----------|-----------|
b|--7------5-|--7------6-|
g|-----7-----|-----7-----|
d|-4s5---5---|-4s5---5---|

fill 1              fill 2
g|------2----|   g|----------|
d|--2s4------|   d|-2h4s7----|
a|---------5-|   d|--------5-|

Play song like:
lick 1: x3
lick 2: x2
lick 3: 1x
lick 1: x3
lick 2: x3
add lick 4
near end.

end with:
lick 3.
Tap to rate this tab
# A B C D E F G H I J K L M N O P Q R S T U V W X Y Z