Song name
# A B C D E F G H I J K L M N O P Q R S T U V W X Y Z

Creed - Higher tab

t. See http://www.olga.net/faq/ for more information.                     #
#-----------------------------------------------------------------------------#

Date: Thu, 09 Sep 1999 16:50:01 -0400
 From: jahayes99@aol.com (JAHayes99)
Subject: c/creed/higher.tab
 
 Higher
 Creed
 Human Clay
 
 "Dropped-D Tuning" (low to high DADGBE)
 
 Intro
 =====
    D                                A
 e--------------------------------------------------------------------
 B--------------------------------------------------------------------
 G--7-7-7/9-9/11-11-9-11-11/12-12-11-9-11-11^9^7^9--------------------
 D--0-0-0-0-0-0--0--0-0--0--0--0--0--0-0--0--0-0-0--------------------
 A--------------------------------------------------------------------
 D--------------------------------------------------------------------
    G
 e--------------------------------------------------------------------
 B--------------------------------------------------------------------
 G--7--9--7--12^11-11-9^11-11--9-9^11-11------------------------------
 D--0--0--0--0--0--0--0-0--0---0-0-0--0-------------------------------
 A--------------------------------------------------------------------
 D--------------------------------------------------------------------
 
    D                                A
 e--------------------------------------------------------------------
 B--------------------------------------------------------------------
 G--7-7-7/9-9/11-11-9-11-11/12-12-11-9-11-11^9^7^9--------------------
 D--0-0-0-0-0-0--0--0-0--0--0--0--0--0-0--0--0-0-0--------------------
 A--------------------------------------------------------------------
 D--------------------------------------------------------------------
    G
 e-------------------------------|------------------------------------
 B-------------------------------|------------------------------------
 G--7--9--7----------------------|------------------------------------
 D--0--0--0---5-0-0---5-0-0------|------------------------------------
 A------------5-0-0---5-0-0------|------------------------------------
 D------------5-0-0---5-0-0------|------------------------------------
 
 Verse
 =====
    Dsus2 G
 e--0------------|----
 B--3-----7------|----
 G--2-----6------|----
 D--0-----5------|----
 A--0-----5------|----
 D--0-----5------|----
 
 Prechorus (palm-muted, x2)
 =========
    F#                    G
 e---------------------------------------------------|----------------
 B---------------------------------------------------|----------------
 G---------------------------------------------------|----------------
 D--4-4-4-4-4-4-4-4-4-4-4-5-5-5-5-5-5-5-5-5-5-5-5-5--|----------------
 A--4-4-4-4-4-4-4-4-4-4-4-5-5-5-5-5-5-5-5-5-5-5-5-5--|----------------
 D--4-4-4-4-4-4-4-4-4-4-4-5-5-5-5-5-5-5-5-5-5-5-5-5--|----------------
 
 Chorus
 ======
    D   Dsus2   G   F#D
 e--------------------------------------------------------------------
 B--------------------------------------------------------------------
 G--7---7------------------6-7-9^7^6-7--------------------------------
 D--7---7-------5---4-0-----------------------------------------------
 A--5---4-------5---4-0-----------------------------------------------
 D--------------5---4-0-----------------------------------------------
 
    D   Dsus2   G   F#D
 e--2---0----------------------|-------
 B--3---3----------------------|-------
 G--2---2----------------------|--x2---
 D--0---0-------5---4-0----4~--|-------
 A--0---0-------5---4-0--------|-------
 D--0---0-------5---4-0--------|-------
 
 Repeat Verse
 Repeat Prechorus
 Repeat Chorus
 Repeat Prechorus
 Repeat Last Half of Intro
 
 Bridge
 ======
    A   G
 e--------------------------------------------------------------------
 B--------------------------------------------------------------------
 G--------------------------------------------------------------------
 D--7---5----5-0-0---5-0-0--------------------------------------------
 A--7---5----5-0-0---5-0-0--------------------------------------------
 D--7---5----5-0-0---5-0-0--------------------------------------------
 
 Repeat Intro
 Repeat Chorus
 
 Send comments, questions, corrections to fro2@netzero.net
Tap to rate this tab
 
# A B C D E F G H I J K L M N O P Q R S T U V W X Y Z