Song name
# A B C D E F G H I J K L M N O P Q R S T U V W X Y Z

Creed - Higher tab

Drop-D Tuning

-Intro-
E------------------------------------------------------------------------------------
B------------------------------------------------------------------------------------
G-7-7--7-7-9-9-9/11-11-12-11-11h12p11-9-9-9-9-11-11-9-9-11-9\7-7-7-9-9--7-7-7-7-7-----
D-0-0--0-0-0-0-0----0--0--0--0--------0-0-7-7-7--7--7-7-7--7\5-5-5-5-5--5-5-5-5-5-0-0-
A-0-0--0-0-0-0-0----0--0--0--0--------0-0-7-7-7--7--7-7-7--7\5-5-5-5-5--5-5-5-5-5-0-0-
D-0-0--0-0-0-0-0----0--0--0--0--------0-0-7-7-7--7--7-7-7--7\5-5-5-5-5--5-5-5-5-5-0-0-

E-------------------------0---------------------------
B--8p7-7--7-5h7-7--7-8p7--3---------------------------
G--7---7--7-7---7--7-7----2---------------------------
D--0---0--0-0---0--0-0----0---------------------------
A-------------------------0---------------------------
D-----------------------------------------------------

-Verse-
E----------------------------------------------------------------------
B---3---3--3-3-3-3--3--3-3----------------------------------3--3--3----
G---2---2--2-2-2-2--2--2-2-----------7---7--7-7-7--7-7-7-7--2--2--2----
D---0---0--0-0-0-0--0--0-0-----------7---7--7-7-7--7-7-7-7--0--0--0--0-
A---0---0--0-0-0-0--0--0-0-----------5---5--5-5-5--5-5-5-5--0--0--0--0-
D---0---0--0-0-0-0--0--0-0-----------5---5--5-5-5--5-5-5-5--0--0--0--0-

E------------------------------------------------------------0---------------
B---------------------------3---3--3---------------------------0-------------
G---7---7--7-7-7--7--7-7-7--2---2--2-----------------7--7--------7--7-7-7-7--
D---5---5--5-5-5--7--7-7-7--0---0--0-0---------------7--7-----------7-7-7-7--
A---5---5--5-5-5--5--5-5-5--0---0--0-0---------------5--5-----------5-5-5-5--
D---5---5--5-5-5--5--5-5-5--0---0--0-0---------------5--5-----------5-5-5-5—

-Pre Chorus-
E--------------------------------------------------------------------
B--------------------------------------------------------------------
G--------------------------------------------------------------------
D---4-4-4-4-4-4-4-4-4-4-4-4-4-4-4-4-5-5-5-5-5-5-5-5-5-5-5-5-5-5-5-5--
A---5-5-5-5-5-5-5-5-5-5-5-5-5-5-5-5-5-5-5-5-5-5-5-5-5-5-5-5-5-5-5-5--
D---4-4-4-4-4-4-4-4-4-4-4-4-4-4-4-4-5-5-5-5-5-5-5-5-5-5-5-5-5-5-5-5--

E------------------------------------------------------------------------
B------------------------------------------------------------------------
G-------------------------------------------7---7------------------------
D---4-4-4-4-4-4-4-4-4-4-4-4-4-4-4-4-5-5-5-5-7---5/17-17-17-17-17-17--17--
A---5-5-5-5-5-5-5-5-5-5-5-5-5-5-5-5-5-5-5-5-5---5/17-17-17-17-17-17--17--
D---4-4-4-4-4-4-4-4-4-4-4-4-4-4-4-4-5-5-5-5-5---5/17-17-17-17-17-17--17--

-Chorus-				    1st ending         2nd ending
E---------------------------------------[-----------------] [---------]
B---3--3-3--2--2-2-3--------------------[-----------------] [---------]
G---2--2-2--2--2-2-2-----7--------------[-2-3-5p3p2-3-----] [---------]
D---0--0-0--0--0-0-0-----7--4--0-0--0-0-[--------------0--] [-4b---0--]
A---0--0-0--0--0-0-0-----5--4--0-0--0-0-[--------------0--] [---------]
D---0--0-0---------0-----5--4--0-0--0-0-[--------------0--] [---------]
         *1st ending can also be played A-4b5-7-7b4-5

-Bridge- these chords in order…you can figure it out
E---------------------------------------------------------------
B---------------------------------------------------------------
G---------------------------------------------------------------
D---0--0--0--7----7---7-----5---5--5---5-0--0-0-5-0-0—-5-5-5-5-0
A---0--0--0--7----7---7-----5---5--5---5-0--0-0-5-0-0—-5-5-5-5-0
D---0--0--0--7----7---7—----5---5--5---5-0--0-0-5-0-0--5-5-5-5-0 
Tap to rate this tab
 
# A B C D E F G H I J K L M N O P Q R S T U V W X Y Z