Song name
# A B C D E F G H I J K L M N O P Q R S T U V W X Y Z

Creed - Ode tab

Help us improve GuitareTab! Take a short survey!
Gtr I (D A D G B E) - 'Mark Tremonti'


   Intro
    Q=93
   4/4
    Gtr I
                  ~~~                      ~~~
    S S S S S E. +H       S S S S S S S S +H
||----------------------|------------------------|
||o---------------------|------------------------|
||----------------------|------------------------|
||--0-0-0-7-0-6--(6)----|-0-0-0-7-0-6-0-4-(4)----|
||o---------------------|------------------------|
||----------------------|------------------------|


                ~~~                      ~~~
  S S S S S E. +H       S S S S S S S S +H
|---------------------|-------------------------||
|---------------------|------------------------o||
|---------------------|-------------------------||
|-0-0-0-7-0-6--(6)----|-0-0-0-7-0-6-0-4-(4)-----||
|---------------------|------------------------o||
|---------------------|-------------------------||


  S S S S S S S S S S S S S S S S   S S S S S S S S S S S S S S S S
|---------------------------------|---------------------------------|
|---------------------------------|---------------------------------|
|---------------------------------|---------------------------------|
|-0-0-0-7-0-6-0-4-0-5-0-2-0-3-2-1-|-0-0-0-7-0-6-0-4-0-5-0-2-0-3-2-1-|
|---------------------------------|---------------------------------|
|---------------------------------|---------------------------------|


  S S S S S S S S S S S S S S S S
|---------------------------------|
|---------------------------------|
|---------------------------------|
|-0-0-0-7-0-6-0-4-0-5-0-2-0-3-2-1-|
|---------------------------------|
|---------------------------------|


   S   S  S S S S  S   S  S  S  S S  S   S   S   S
|---------------------------------------------------|
|---------------------------------------------------|
|---------------------------------------------------|
|-<4>-<4>-0-0-0-0-<4>-<4>-0-(0)-0-0-<4>-<4>-<4>-<4>-|
|---------------------------------------------------|
|---------------------------------------------------|


   Verse
    D5
    S S S S S S S S S S S S S S S S   S S S S S S S S S S S S S S S S
||----------------------------------|----------------------------------|
||o---------------------------------|----------------------------------|
||----------------------------------|----------------------------------|
||--0-0-0-7-0-6-0-4-0-5-0-2-0-3-2-1-|-0-0-0-7-0-6-0-4-0-5-0-2-0-3-2-1--|
||o-0-0-0-7-0-6-0-4-0-5-0-2-0-3-2-1-|-0-0-0-7-0-6-0-4-0-5-0-2-0-3-2-1--|
||--0-0-0-7-0-6-0-4-0-5-0-2-0-3-2-1-|-0-0-0-7-0-6-0-4-0-5-0-2-0-3-2-1--|


  S S S S S S S S S S S S S S S S   S S S S S S S S S S S S S S S S
|---------------------------------|---------------------------------|
|---------------------------------|---------------------------------|
|---------------------------------|---------------------------------|
|-0-0-0-7-0-6-0-4-0-5-0-2-0-3-2-1-|-0-0-0-7-0-6-0-4-0-5-0-2-0-3-2-1-|
|-0-0-0-7-0-6-0-4-0-5-0-2-0-3-2-1-|-0-0-0-7-0-6-0-4-0-5-0-2-0-3-2-1-|
|-0-0-0-7-0-6-0-4-0-5-0-2-0-3-2-1-|-0-0-0-7-0-6-0-4-0-5-0-2-0-3-2-1-|


  Gtr I
  S S S S S S S S S S S S S S S S   S S S S S S S S S S S S S S S S
|---------------------------------|---------------------------------|
|---------------------------------|---------------------------------|
|---------------------------------|---------------------------------|
|-0-0-0-7-0-6-0-4-0-5-0-2-0-3-2-1-|-0-0-0-7-0-6-0-4-0-5-0-2-0-3-2-1-|
|-0-0-0-7-0-6-0-4-0-5-0-2-0-3-2-1-|-0-0-0-7-0-6-0-4-0-5-0-2-0-3-2-1-|
|-0-0-0-7-0-6-0-4-0-5-0-2-0-3-2-1-|-0-0-0-7-0-6-0-4-0-5-0-2-0-3-2-1-|


  S S S S S S S S S S S S S S S S   S S S S S S S S S S S S S S S S
|---------------------------------|---------------------------------||
|---------------------------------|---------------------------------||
|---------------------------------|---------------------------------||
|-0-0-0-7-0-6-0-4-0-5-0-2-0-3-2-1-|-0-0-0-7-0-6-0-4-0-5-0-2-0-3-2-1-||
|-0-0-0-7-0-6-0-4-0-5-0-2-0-3-2-1-|-0-0-0-7-0-6-0-4-0-5-0-2-0-3-2-1-||
|-0-0-0-7-0-6-0-4-0-5-0-2-0-3-2-1-|-0-0-0-7-0-6-0-4-0-5-0-2-0-3-2-1-||


 Chorus
  D5             E5                        G5
  Gtr I
  Q  Q  E Q  E   Q  E. S +S  S E +E  S S   Q  E. S E E E S S
|--------------|-------------------------|-------------------|
|--------------|-------------------------|-------------------|
|-2--2--2-2--2-|-4--4--4-(4)-4-4-(4)-4-6-|-7--7--7-7-7-7-----|
|-0--0--0-0--0-|-2--2--2-(2)-2-2-(2)-2-4-|-5--5--5-5-5-5-----|
|-0--0--0-0--0-|-2--2--2-(2)-2-2-(2)-2-4-|-5--5--5-5-5-5-0-0-|
|-0--0--0-0--0-|-2--2--2-(2)-2-2-(2)-2-4-|-5--5--5-5-5-5-0-0-|


  N.(D)                           D5             E5
  E S S S S S S +E  S S S S S S   Q  Q  E Q  E   Q  E. S +S  S E +E  S S
|-------------------------------|--------------|--------------------------|
|-------------------------------|--------------|--------------------------|
|-------------------------------|-2--2--2-2--2-|-4--4--4-(4)-4-4-(4)-4-6--|
|-----------4-------------------|-0--0--0-0--0-|-2--2--2-(2)-2-2-(2)-2-4--|
|-5-----3-5---5-(5)-3-5-7-3-----|-0--0--0-0--0-|-2--2--2-(2)-2-2-(2)-2-4--|
|---0-0---------------------3h4-|-0--0--0-0--0-|-2--2--2-(2)-2-2-(2)-2-4--|


  G5                  N.(D)
  Q  E. S E E E S S   S S S S S S S S S S S S S S E
|-------------------|-------------------------------|
|-------------------|-------------------------------|
|-7--7--7-7-7-7-----|-------------------------------|
|-5--5--5-5-5-5-----|-------3-4-5-------3-4-5-------|
|-5--5--5-5-5-5-0-0-|-3-4-5-------3-4-5-------3-5-3-|
|-5--5--5-5-5-5-0-0-|-------------------------------|


  D5             E5
  Gtr I
  Q  Q  E Q  E   Q  E. S +S  S E +E  S S
|--------------|-------------------------|
|--------------|-------------------------|
|-2--2--2-2--2-|-4--4--4-(4)-4-4-(4)-4-6-|
|-0--0--0-0--0-|-2--2--2-(2)-2-2-(2)-2-4-|
|-0--0--0-0--0-|-2--2--2-(2)-2-2-(2)-2-4-|
|-0--0--0-0--0-|-2--2--2-(2)-2-2-(2)-2-4-|


  G5                  N.(D)
  Q  E. S E E E S S   E S S S S S S +E  S S S S S S
|-------------------|-------------------------------|
|-------------------|-------------------------------|
|-7--7--7-7-7-7-----|-------------------------------|
|-5--5--5-5-5-5-----|-----------4-------------------|
|-5--5--5-5-5-5-0-0-|-5-----3-5---5-(5)-3-5-7-3-----|
|-5--5--5-5-5-5-0-0-|---0-0---------------------3h4-|


  D5             E5                        G5
  Gtr I
  Q  Q  E Q  E   Q  E. S +S  S E +E  S S   E E E. S +S  S E S S S S
|--------------|-------------------------|--------------------------|
|-3--3--3-3--3-|-------------------------|--------------------------|
|-2--2--2-2--2-|-4--4--4-(4)-4-4-(4)-4-6-|-7-7-7--7-(7)-7-7-7-7-7---|
|-0--0--0-0--0-|-2--2--2-(2)-2-2-(2)-2-4-|-5-5-5--5-(5)-5-5-5-5-5---|
|-0--0--0-0--0-|-2--2--2-(2)-2-2-(2)-2-4-|-5-5-5--5-(5)-5-5-5-5-5---|
|-0--0--0-0--0-|-2--2--2-(2)-2-2-(2)-2-4-|-5-5-5--5-(5)-5-5-5-5-5-0-|


 Interlude
  1.
  D5                                                            EbE5F5  E5Eb5
  S  S  S S  S  S S  S  S S  S  S S  S  S S    S  S S  S  S S E S S E S S E
|-------------------------------------------|-------------------------------|
|-------------------------------------------|-------------------------------|
|-------------------------------------------|-------------------------------|
|-0-12-11-0-12-11-0-12-11-0-12-11-0-12-11-0-|-12-11-0-12-11-0-0-1-2-3-3-2-1-|
|-0-12-11-0-12-11-0-12-11-0-12-11-0-12-11-0-|-12-11-0-12-11-0-0-1-2-3-3-2-1-|
|-0-12-11-0-12-11-0-12-11-0-12-11-0-12-11-0-|-12-11-0-12-11-0-0-1-2-3-3-2-1-|


  D5                                                            EbE5F5  E5Eb5
  S  S  S S  S  S S  S  S S  S  S S  S  S S    S  S S  S  S S E S S E S S E
|-------------------------------------------|-------------------------------|
|-------------------------------------------|-------------------------------|
|-------------------------------------------|-------------------------------|
|-0-12-11-0-12-11-0-12-11-0-12-11-0-12-11-0-|-12-11-0-12-11-0-0-1-2-3-3-2-1-|
|-0-12-11-0-12-11-0-12-11-0-12-11-0-12-11-0-|-12-11-0-12-11-0-0-1-2-3-3-2-1-|
|-0-12-11-0-12-11-0-12-11-0-12-11-0-12-11-0-|-12-11-0-12-11-0-0-1-2-3-3-2-1-|


  N.C.
  PM--------------------------------------------------------------|
  S S S S S S S S S S S S S S S S   S S S S S S S S S S S S S S S S
|---------------------------------|---------------------------------|
|---------------------------------|---------------------------------|
|---------------------------------|---------------------------------|
|-0-0-0-7-0-6-0-4-0-5-0-2-0-3-2-1-|-0-0-0-7-0-6-0-4-0-5-0-2-0-3-2-1-|
|---------------------------------|---------------------------------|
|---------------------------------|---------------------------------|


  PM----------------------------|
  S S S S S S S S S S S S S S S S
|---------------------------------|
|---------------------------------|
|---------------------------------|
|-0-0-0-7-0-6-0-4-0-5-0-2-0-3-2-1-|
|---------------------------------|
|---------------------------------|


   S   S  S S S S  S   S  S S S S  S   S   S   S
|--------------------------------------------------||
|-------------------------------------------------o||
|--------------------------------------------------||
|-<4>-<4>-0-0-0-0-<4>-<4>-0-0-0-0-<4>-<4>-<4>-<4>--||
|-------------------------------------------------o||
|--------------------------------------------------||


  2.
  N.C.
  S S S S S S S S S S S S S S E   S S S S S S S S S S S S S S E
|-------------------------------|-------------------------------|
|-------------------------------|-------------------------------|
|-------------------------------|-------------------------------|
|-------3-4-5-------3-4-5-------|-------3-4-5-------3-4-5-------|
|-3-4-5-------3-4-5-------3-5-3-|-3-4-5-------3-4-5-------3-5-3-|
|-------------------------------|-------------------------------|


  S S S S S S S S S S S S S S E
|-------------------------------|
|-------------------------------|
|-------------------------------|
|-------3-4-5-------3-4-5-------|
|-3-4-5-------3-4-5-------3-5-3-|
|-------------------------------|


  S S S S S S S S S S S S S S E   H.      +E  E
|-------------------------------|-----------------||
|-------------------------------|-----------------||
|-------------------------------|-----------------||
|-------3-4-5-------3-4-5-------|-----------------||
|-3-4-5-------3-4-5-------3-5-3-|-3-------(3)-3/--||
|-------------------------------|-----------------||


   Bridge
    D5
    Gtr I
    S  S  S S  S  S S  S  S S  S  S S  S  S S
||--------------------------------------------|
||o-------------------------------------------|
||--------------------------------------------|
||--0-12-11-0-12-11-0-12-11-0-12-11-0-12-11-0-|
||o-0-12-11-0-12-11-0-12-11-0-12-11-0-12-11-0-|
||--0-12-11-0-12-11-0-12-11-0-12-11-0-12-11-0-|


                    EbE5F5  E5Eb5
   S  S S  S  S S E S S E S S E
|--------------------------------||
|-------------------------------o||
|--------------------------------||
|-12-11-0-12-11-0-0-1-2-3-3-2-1--||
|-12-11-0-12-11-0-0-1-2-3-3-2-1-o||
|-12-11-0-12-11-0-0-1-2-3-3-2-1--||


    N.(D5)
    PM-----------------------------------------
    S  S  S S  S  S S  S  S S  S  S S  S  S S
||--------------------------------------------|
||o-------------------------------------------|
||--------------------------------------------|
||--------------------------------------------|
||o-------------------------------------------|
||--0-12-11-0-12-11-0-12-11-0-12-11-0-12-11-0-|


                  D5  EbE5F5  E5Eb5
 ------------|
   S  S S  S  S S S S S S E S S E
|-----------------------------------||
|----------------------------------o||
|-----------------------------------||
|-----------------0-0-1-2-3-3-2-1---||
|-----------------0-0-1-2-3-3-2-1--o||
|-12-11-0-12-11-0-0-0-1-2-3-3-2-1---||


  D5                                                            EbE5F5  E5Eb5
  Gtr I
  S  S  S S  S  S S  S  S S  S  S S  S  S S    S  S S  S  S S E S S E S S E
|-------------------------------------------|-------------------------------|
|-------------------------------------------|-------------------------------|
|-------------------------------------------|-------------------------------|
|-0-12-11-0-12-11-0-12-11-0-12-11-0-12-11-0-|-12-11-0-12-11-0-0-1-2-3-3-2-1-|
|-0-12-11-0-12-11-0-12-11-0-12-11-0-12-11-0-|-12-11-0-12-11-0-0-1-2-3-3-2-1-|
|-0-12-11-0-12-11-0-12-11-0-12-11-0-12-11-0-|-12-11-0-12-11-0-0-1-2-3-3-2-1-|


  D5                                                            EbE5F5  E5Eb5
  S  S  S S  S  S S  S  S S  S  S S  S  S S    S  S S  S  S S E S S E S S E
|-------------------------------------------|-------------------------------||
|-------------------------------------------|-------------------------------||
|-------------------------------------------|-------------------------------||
|-0-12-11-0-12-11-0-12-11-0-12-11-0-12-11-0-|-12-11-0-12-11-0-0-1-2-3-3-2-1-||
|-0-12-11-0-12-11-0-12-11-0-12-11-0-12-11-0-|-12-11-0-12-11-0-0-1-2-3-3-2-1-||
|-0-12-11-0-12-11-0-12-11-0-12-11-0-12-11-0-|-12-11-0-12-11-0-0-1-2-3-3-2-1-||


 Chorus
  D5             E5                        G5
  Q  Q  E Q  E   Q  E. S +S  S E +E  S S   Q  E. S E E E S S
|--------------|-------------------------|-------------------|
|--------------|-------------------------|-------------------|
|-2--2--2-2--2-|-4--4--4-(4)-4-4-(4)-4-6-|-7--7--7-7-7-7-----|
|-0--0--0-0--0-|-2--2--2-(2)-2-2-(2)-2-4-|-5--5--5-5-5-5-----|
|-0--0--0-0--0-|-2--2--2-(2)-2-2-(2)-2-4-|-5--5--5-5-5-5-0-0-|
|-0--0--0-0--0-|-2--2--2-(2)-2-2-(2)-2-4-|-5--5--5-5-5-5-0-0-|


  N.C.                            D5             E5
  E S S S S S S +E  S S S S S S   Q  Q  E Q  E   Q  E. S +S  S E +E  S S
|-------------------------------|--------------|--------------------------|
|-------------------------------|--------------|--------------------------|
|-------------------------------|-2--2--2-2--2-|-4--4--4-(4)-4-4-(4)-4-6--|
|-----------4-------------------|-0--0--0-0--0-|-2--2--2-(2)-2-2-(2)-2-4--|
|-5-----3-5---5-(5)-3-5-7-3-----|-0--0--0-0--0-|-2--2--2-(2)-2-2-(2)-2-4--|
|---0-0---------------------3h4-|-0--0--0-0--0-|-2--2--2-(2)-2-2-(2)-2-4--|


  G5                  N.C.
  Q  E. S E E E S S   S S S S S S S S S S S S S S E
|-------------------|-------------------------------|
|-------------------|-------------------------------|
|-7--7--7-7-7-7-----|-------------------------------|
|-5--5--5-5-5-5-----|-------3-4-5-------3-4-5-------|
|-5--5--5-5-5-5-0-0-|-3-4-5-------3-4-5-------3-5-3-|
|-5--5--5-5-5-5-0-0-|-------------------------------|


  D5             E5
  Q  Q  E Q  E   Q  E. S +S  S E +E  S S
|--------------|-------------------------|
|--------------|-------------------------|
|-2--2--2-2--2-|-4--4--4-(4)-4-4-(4)-4-6-|
|-0--0--0-0--0-|-2--2--2-(2)-2-2-(2)-2-4-|
|-0--0--0-0--0-|-2--2--2-(2)-2-2-(2)-2-4-|
|-0--0--0-0--0-|-2--2--2-(2)-2-2-(2)-2-4-|


  G5                  N.C.
  Q  E. S E E E S S   E S S S S S S +E  S S S S S S
|-------------------|-------------------------------|
|-------------------|-------------------------------|
|-7--7--7-7-7-7-----|-------------------------------|
|-5--5--5-5-5-5-----|-----------4-------------------|
|-5--5--5-5-5-5-0-0-|-5-----3-5---5-(5)-3-5-7-3-----|
|-5--5--5-5-5-5-0-0-|---0-0---------------------3h4-|


  D5             E5                        G5
  Q  Q  E Q  E   Q  E. S +S  S E +E  S S   E E E. S +S  S E S S S S
|--------------|-------------------------|--------------------------|
|-3--3--3-3--3-|-------------------------|--------------------------|
|-2--2--2-2--2-|-4--4--4-(4)-4-4-(4)-4-6-|-7-7-7--7-(7)-7-7-7-7-7---|
|-0--0--0-0--0-|-2--2--2-(2)-2-2-(2)-2-4-|-5-5-5--5-(5)-5-5-5-5-5---|
|-0--0--0-0--0-|-2--2--2-(2)-2-2-(2)-2-4-|-5-5-5--5-(5)-5-5-5-5-5---|
|-0--0--0-0--0-|-2--2--2-(2)-2-2-(2)-2-4-|-5-5-5--5-(5)-5-5-5-5-5-0-|


  D5                                                            EbE5F5  E5Eb5
  S  S  S S  S  S S  S  S S  S  S S  S  S S    S  S S  S  S S E S S E S S E
|-------------------------------------------|-------------------------------|
|-------------------------------------------|-------------------------------|
|-------------------------------------------|-------------------------------|
|-0-12-11-0-12-11-0-12-11-0-12-11-0-12-11-0-|-12-11-0-12-11-0-0-1-2-3-3-2-1-|
|-0-12-11-0-12-11-0-12-11-0-12-11-0-12-11-0-|-12-11-0-12-11-0-0-1-2-3-3-2-1-|
|-0-12-11-0-12-11-0-12-11-0-12-11-0-12-11-0-|-12-11-0-12-11-0-0-1-2-3-3-2-1-|


  D5                                                            EbE5F5  E5Eb5
  S  S  S S  S  S S  S  S S  S  S S  S  S S    S  S S  S  S S E S S E S S E
|-------------------------------------------|-------------------------------|
|-------------------------------------------|-------------------------------|
|-------------------------------------------|-------------------------------|
|-0-12-11-0-12-11-0-12-11-0-12-11-0-12-11-0-|-12-11-0-12-11-0-0-1-2-3-3-2-1-|
|-0-12-11-0-12-11-0-12-11-0-12-11-0-12-11-0-|-12-11-0-12-11-0-0-1-2-3-3-2-1-|
|-0-12-11-0-12-11-0-12-11-0-12-11-0-12-11-0-|-12-11-0-12-11-0-0-1-2-3-3-2-1-|


    D5
    PM-----------------------------------------
    S  S  S S  S  S S  S  S S  S  S S  S  S S
||--------------------------------------------|
||o-------------------------------------------|
||--------------------------------------------|
||--------------------------------------------|
||o-------------------------------------------|
||--0-12-11-0-12-11-0-12-11-0-12-11-0-12-11-0-|


                                     Outro
                      EbE5F5  E5Eb5   D5
 ------------|
   S  S S  S  S S S S S S E S S E     W
|----------------------------------||------|
|---------------------------------o||------|
|----------------------------------||------|
|-----------------0-0-1-2-3-3-2-1--||-0----|
|-----------------0-0-1-2-3-3-2-1-o||-0----|
|-12-11-0-12-11-0-0-0-1-2-3-3-2-1--||-0----|


                                                               H.=H
               EbE5F5  E5Eb5 D5                      EbE5F5  E5F5  D5
           PM|                                   PM|
  +Q   +E  S S S S E S S E   W          +Q   +E  S S S S E S S E   W
|--------------------------|----------|--------------------------|------|
|--------------------------|----------|--------------------------|------|
|--------------------------|----------|--------------------------|------|
|-(0)--(0)-0-0-1-2-3-3-2-1-|-0--------|-(0)--(0)-0-0-1-2-3-3-2-1-|-0----|
|-(0)--(0)-0-0-1-2-3-3-2-1-|-0--------|-(0)--(0)-0-0-1-2-3-3-2-1-|-0----|
|-(0)--(0)-0-0-1-2-3-3-2-1-|-0--------|-(0)--(0)-0-0-1-2-3-3-2-1-|-0----|


  +W           +W
|------------|--------*|
|------------|--------*|
|------------|--------*|
|-(0)--------|-(0)----*|
|-(0)--------|-(0)----*|
|-(0)--------|-(0)----*|




--------------------------------------------------------------------------------


Duration Legend
---------------
W - whole; H - half; Q - quarter; E - 8th; S - 16th; T - 32nd; X - 64th; a - acciaccatura
+ - note tied to previous; . - note dotted; .. - note double dotted
Uncapitalized letters represent notes that are staccato (1/2 duration)
Irregular groupings are notated above the duration line
Duration letters will always appear directly above the note/fret number it represents the
duration for.  Duration letters with no fret number below them represent rests.  Multi-
bar rests are notated in the form Wxn, where n is the number of bars to rest for.  Low
melody durations appear below the staff

Tablature Legend
----------------
 h   - hammer-on
 p   - pull-off
 b   - bend
 pb  - pre-bend
 r   - bend release (if no number after the r, then release immediately)
 /\  - slide into or out of (from/to "nowhere")
 s   - legato slide
 S   - shift slide
 - natural harmonic
[n]  - artificial harmonic
n(n) - tapped harmonic
 ~   - vibrato
 tr  - trill
 T   - tap
 TP  - trem. picking
 PM  - palm muting
\n/  - tremolo bar dip; n = amount to dip
 \n  - tremolo bar down
 n/  - tremolo bar up
/n\  - tremolo bar inverted dip
 =   - hold bend; also acts as connecting device for hammers/pulls
 <> - volume swell (louder/softer)
 x   - on rhythm slash represents muted slash
 o   - on rhythm slash represents single note slash

Misc Legend
-----------
 |  - bar
||  - double bar
||o - repeat start
o|| - repeat end
*|  - double bar (ending)
 :  - bar (freetime)
 $  - Segno
 &  - Coda
Tempo markers -  = BPM(8/16=s8/s16), where s8 = swing 8ths, s16 = swing 16ths

Related for Ode tab