Song name
# A B C D E F G H I J K L M N O P Q R S T U V W X Y Z

Creedence Clearwater Revival - Ooby Dooby chords

Highlighted       Show chord diagrams
-------------------------------------------------------------------------------
                             OOBY DOOBY - Creedence Clearwater Revival
-------------------------------------------------------------------------------
Tabbed by: tunietunes

Tuning: Standard

This song has a lot of solos, which will not be included in this tab... improvise... :P


Verse 1

N.C.
Hey Baby, jump over here, 

When you do the Ooby Dooby I gotta be near, 

Chorus

A                             E
Ooby Dooby, Ooby Dooby, Ooby Dooby, Ooby Dooby, 
B7                           A
Ooby Dooby Ooby Dooby Ooby Dooby 
           E
Ooby doo wah, doo wah, doo wah wah. 


Verse 2

E                    
Well, you wiggle to the left, you wiggle to the right; 
                    
You do the Ooby Dooby with all your might; 

Chorus 

Verse 3

E
Well, you wiggle an' you shake like a big rattlesnake; 

You do the Ooby Dooby till you think you're gonna break. 

Chorus 

E
I'm movin' and struttin' 'cause now I know 

How to do the Ooby Dooby, baby, let's go. 

Chorus

End on:
e|---------------------0-----------------------------------------------------|
B|---------------------0-----------------------------------------------------|
G|---------------------1-----------------------------------------------------|
D|----2---0------------2-----------------------------------------------------|
A|------------2--------2-----------------------------------------------------|
E|----------------3----0-----------------------------------------------------|

Tap to rate this tab
# A B C D E F G H I J K L M N O P Q R S T U V W X Y Z