Song name
# A B C D E F G H I J K L M N O P Q R S T U V W X Y Z

Creedence Clearwater Revival - I Heard It Through The Grapevine tab

Song: "I Heard It Through The Grapevine" (First Guitar Solo)
Artist: Creedence Clearwater Revival
As tabbed by: Braden

Here's the first solo from CCR's classic cover of "Heard It Through The Grapevine".
This was done entirely by ear some some parts may be off, but it's pretty solid to work
with.  I'm in the process of the other solos in this tune, and if you like this one feel
free to request other CCR stuff via braden_01@hotmail.com.  Enjoy!


3:08                 ~~~                                                            ~~~~
------------------------------------------------------------------------------------------
------------------------------------------------------------------------------------------
-12-14b15-14b15-14b15----12p10h12----------------------------5-5-9b11(r9)p7-9b11-7--------
-----------------------------------12p10h12--------------5/7------------------------------
--------------------------------------------12p10/----------------------------------------
------------------------------------------------------------------------------------------
              
               ~~~~                                                       ~~~~              ~~~        3:28
------------------------------------------------------------------------------------------------------------
----------14b16------------------------------------5-7-----9b11r9p7-9b11-7----------------------------------
-7h9-7h9------------12p10h12------------------5/7----------------------------7h9-7h9--14b16----14b16-12-9\--
-----------------------------12p10h12-----------------------------------------------------------------------
---------------------------------------12p/-----------------------------------------------------------------
------------------------------------------------------------------------------------------------------------

                                                        3:34
-----------------------------------------------------------------
----------------------10-10--------------------------------------
-/10----10----12------10-10----12b14-10----12-10-------12-12b14--
-----12----12----12---------12----------12----------12-----------
-----------------------------------------------------------------
-----------------------------------------------------------------

------------------------------------------------------------------------------------------
----10-10-10----10-------12b13--12b13----12b13r12-10----12-10--10-10----10-10-10----10----
----10-10-10----10---7---12b13--12b13----12b13r12-10----12-10--10-10----10-10-10----10--7-
-12----------12------7----------------12-------------12--------------12----------12-----7-
------------------------------------------------------------------------------------------
------------------------------------------------------------------------------------------

                                    3:49
------------------------------------------|
----12b13r12b13r12--12b13r12-10----12-10\-|
----12b13r12b13r12--12b13r12-10----12-10\-|
-12-----------------------------12--------|
------------------------------------------|
------------------------------------------|
Tap to rate this tab
 
# A B C D E F G H I J K L M N O P Q R S T U V W X Y Z