Song name
# A B C D E F G H I J K L M N O P Q R S T U V W X Y Z

Creeper Lagoon - Cellophane tab

***Cellophane by Creeper Lagoon***

Tab by Espada444

Standard tuning. No capo

e|------3-333-----3-333-----3-333-----3-3----------------------|
B|------3-333-----3-333-----3-333-----3-3----------------------|
G|------0-000-----0-000-----0-000-----0-0----------------------|  (Play this twice)
D|------0-000-----0-000-----2-222-----2-2----------------------|
A|----3---------2---------0------------------------------------|
E|-------------------------------------------------------------|

e|------3-333-----3-333-----3-333-----0-00-000-----------------|
B|------3-333-----3-333-----3-333-----2-22-222-----------------|
G|------0-000-----0-000-----0-000-----0-00-000-----------------|  (Then continue
D|------0-000-----0-000-----2-222-----2-22-222-----------------|     to play this)
A|----3---------2---------0------------------------------------|
E|-------------------------------------------------------------|


Play the first set twice, then continue to play the second throughout until the chorus.

I have not figured out the chorus yet unfortunately, but will post soon. Hopefully this 
of some help.
Tap to rate this tab
 
# A B C D E F G H I J K L M N O P Q R S T U V W X Y Z