Song name
# A B C D E F G H I J K L M N O P Q R S T U V W X Y Z

Cripple Bastards - 1974 tab

Help us improve GuitareTab! Take a short survey!
Artist Cripple Bastards 
Album Your Lies In Check 
Song 1974 
Track 29 
Added by ChriS Povey


E|------------------------------| 
B|------------------------------| 
G|------------------------------| 
D|-7--10-7-7-7-7-7-7-7-7-7-7-7--| repeat 8 times 
A|-7--10-7-7-7-7-7-7-7-7-7-7-7--| 
E|-5--8--5-5-5-5-5-5-5-5-5-5-5--| 


E|---------------------------| 
B|---------------------------| 
G|---------------------------| 
D|-5-5---8-8---11-11-10--11--| repeat 4 times 
A|-5-5---8-8---11-11-10--11--| 
E|-3-3-X-6-6-X-9--9--8-X-9---| 
Related for 1974 tab