Song name
# A B C D E F G H I J K L M N O P Q R S T U V W X Y Z

Crisis - Holocaust tab

Artist: Crisis
Song title: Holocaust 
Album : No Town Hall
Year : 1978




Intro 1:

E-------------------------------|
B-------------------------------|
G---2-----4-2-----0-----0-------|
D----0-2------2-----3-2----3-2--|  X6
A-------------------------------|
E-------------------------------|


Intro 2:


E---------------------------------------------|
B---------------------------------------------|
G---------------------------------------------|
D---0-0-3-2-----------------------------------|  X2
A-----------2-2-0-2-3-0-----0-0-3-2-----------|
E-----------------------------------1-1-0-1-3-|



Main riff and also the bridge:  


E--7-------7-----5------7----------|
B--7-------7-----5------7----------|
G--6-------7-----4------6----------|
D--5-------7-----3------5----------|  
A--5-------7-----3------5----------|
E--3-------5-----1------3----------|

Be sure to strum all the strings !
Tap to rate this tab
# A B C D E F G H I J K L M N O P Q R S T U V W X Y Z