Song name
# A B C D E F G H I J K L M N O P Q R S T U V W X Y Z

Croce Jim - New Yorks Not My Home tab

Help us improve GuitareTab! Take a short survey!
Hey! Just wanted to put up a decent tab of the intro to New Yorks not my
home by Jim Croce.


E-------------------------------------------------------2-----|
B-----5-----5------5-----5-----5-----5-----5-4-3-------3-3----|
G---6-----6------6------6-----6-----6------6-5-4------4---4---|
D-7-----7-----7-6-----6----5-5-----5--4--------------4-----4--|
A---------------------------------------4--4-3-2----2---------|
E-------------------------------------------------------------|

E--------------------------------------------------------------|
B----1-----1----------2-------2--------------------------------|
G---0-0---0-0-------2-------2----------------------------------|
D-----------------2-------2------------------------------------|
A---------------0-------0--------------2h4p2-------0-----------|
E-1----1-------------------------0-2-4-------4-2-0-------------|

Questions????????? e-mail me at mchacon400654@msn.com.
any acoustic music or requests?
i got alot in the ol' head of mine, email me.
nick matthews (aka) dave matthews.

"lean on me, i'll lean on you, and we'll be okay."- dave matthews.
Love, hope and tenderness,
nick.
Related for New Yorks Not My Home tab