Song name
# A B C D E F G H I J K L M N O P Q R S T U V W X Y Z

Croce Jim - Operator tab

Intro (play twice)
E|--------------------------------------------------------------------------------------|
B|--------------------------------------------------------------------------------------|
G|------7------7--7-7-7------7------7--7-7-7------7------7--7-7-7------7------7--7-7-7--|
D|--7-7-7--7-7-7--7-7-7--5-5-7--5-5-7--7-7-7--2-2-7--2-2-7--7-7-7--5-5-7--5-5-7--7-7-7--|
A|--7-7-5--7-7-5--5-5-5--5-5-5--5-5-5--5-5-5--2-2-5--2-2-5--5-5-5--5-5-5--5-5-5--5-5-5--|
D|--7-7----7-7-----------5-5----5-5-----------2-2----2-2-----------5-5----5-5-----------|

Pre-Chorus
E|------------------------------------------------------------------------|
B|------------------------------------------------------------------------|
G|------------------------------------------------------------------------|
D|--------------------------------------------------5-5-5--5-5-5--x-x-x-x-|
A|-777777777777777755555555555555557777777777777777-5-5-5--5-5-5--x-x-x-x-|
D|-777777777777777755555555555555557777777777777777-5-5-5--5-5-5--x-x-x-x-|
PM|------------------------------------------------|

Chorus (play twice
E|------------------------------------------------------------------------|
B|------------------------------------------------------------------------|
G|------------------------------------------------------------------------|
D|-777777777777777755555555555555557777777777777777-5-5-5--5-5-5--x-x-x-x-|
A|-777777777777777755555555555555557777777777777777-5-5-5--5-5-5--x-x-x-x-|
D|-777777777777777755555555555555557777777777777777-5-5-5--5-5-5--x-x-x-x-|

Verse (play twice)
E|--------------------------------------------------------------------------------------|
B|--------------------------------------------------------------------------------------|
G|------7------7--7-7-7------7------7--7-7-7------7------7--7-7-7------7------7--7-7-7--|
D|--7-7-7--7-7-7--7-7-7--5-5-7--5-5-7--7-7-7--2-2-7--2-2-7--7-7-7--5-5-7--5-5-7--7-7-7--|
A|--7-7-5--7-7-5--5-5-5--5-5-5--5-5-5--5-5-5--2-2-5--2-2-5--5-5-5--5-5-5--5-5-5--5-5-5--|
D|--7-7----7-7-----------5-5----5-5-----------2-2----2-2-----------5-5----5-5-----------|


Pre-Chorus
E|------------------------------------------------------------------------|
B|------------------------------------------------------------------------|
G|------------------------------------------------------------------------|
D|--------------------------------------------------5-5-5--5-5-5--x-x-x-x-|
A|-777777777777777755555555555555557777777777777777-5-5-5--5-5-5--x-x-x-x-|
D|-777777777777777755555555555555557777777777777777-5-5-5--5-5-5--x-x-x-x-|
PM|------------------------------------------------|

Chorus (play twice
E|------------------------------------------------------------------------|
B|------------------------------------------------------------------------|
G|------------------------------------------------------------------------|
D|-777777777777777755555555555555557777777777777777-5-5-5--5-5-5--x-x-x-x-|
A|-777777777777777755555555555555557777777777777777-5-5-5--5-5-5--x-x-x-x-|
D|-777777777777777755555555555555557777777777777777-5-5-5--5-5-5--x-x-x-x-|

Pre-Chorus (play twice)
E|-------------------------------------------------------------------|
B|-------------------------------------------------------------------|
G|-------------------------------------------------------------------|
D|-------------------------------------------------------------------|
A|-7777777777777777555555555555555577777777777777775555555555555555--|
D|-7777777777777777555555555555555577777777777777775555555555555555--|
PM|----------------------------------------------------------------|

Last Chorus
E|------------------------------------------------------------------------|
B|------------------------------------------------------------------------|
G|------------------------------------------------------------------------|
D|-777777777777777755555555555555557777777777777777-5-5-5--5-5-5--x-x-x-x-|
A|-777777777777777755555555555555557777777777777777-5-5-5--5-5-5--x-x-x-x-|
D|-777777777777777755555555555555557777777777777777-5-5-5--5-5-5--x-x-x-x-|

E|------------------------------------------------------------------------|
B|------------------------------------------------------------------------|
G|------------------------------------------------------------------------|
D|-777777777777777755555555555555557777777777777777-5-5-5--5-5-5--x-x-x-x-|
A|-777777777777777755555555555555557777777777777777-5-5-5--5-5-5--x-x-x-x-|
D|-777777777777777755555555555555557777777777777777-5-5-5--5-5-5--x-x-x-x-|

E|------------------------------------------------------------|
B|------------------------------------------------------------|
G|---------------------------------------------------------7--|
D|-7-7-7--7-7-7--5-5-5--5-5-5--7-7-7--7-7-7--5-5-5--5-5-5--7--|
A|-7-7-7--7-7-7--5-5-5--5-5-5--7-7-7--7-7-7--5-5-5--5-5-5--5--|
D|-7-7-7--7-7-7--5-5-5--5-5-5--7-7-7--7-7-7--5-5-5--5-5-5--0--|
Tap to rate this tab
# A B C D E F G H I J K L M N O P Q R S T U V W X Y Z