Song name
# A B C D E F G H I J K L M N O P Q R S T U V W X Y Z

Cryoshell - Closer To The Truth tab

----------------------------------------------------------------------------
			     CLOSER TO THE TRUTH - Cryoshell
----------------------------------------------------------------------------
Tabbed by: alexmascart
Email: alex.mascart@btinternet.com

Tuning: Drop B

Hi, i heard this song a few days ago. Cant say ive listened to anything else since! ive 
a fan of Cryoshell's work for a while...so here goes.

INTRO
                  . .   . .
|-------------------------------|
|-------------------------------|
|--10-10\6-6--------------------|
|--10-10\6-6\3-3----------------|
|--8--8-\4-4\1-1--6-6-6\4-4-4---|
|-----------------6-6-6\4-4-4---|

VERSE - ALL GUITARS TACET

PRE-CHORUS

from "well none of us can make it on our own..."ect

|--------------------------------------------------------------------------|
|--------------------------------------------------------------------------|
|--------------------------------------------------------------------------|
|--------------------------------------------------------------------------|
|----------------------------------------------2PH/B-----------------------|
|--1-3-1-3-4--1-3-1-3-3--1-3-1-3-3--1-3-1-3-3------------------------------|

Then repeat without the harmonic bend.

The chorus is the same as the intro.

Thats the whole song!
Im gonna post "creepingin my soul" in a few moments...!

peace out!


www.cryoshell.com
Tap to rate this tab
# A B C D E F G H I J K L M N O P Q R S T U V W X Y Z