Song name
# A B C D E F G H I J K L M N O P Q R S T U V W X Y Z

Crystal Castles - Vanished tab

-------------------------------------------------------------------------------
			     Vanished-Crystal Castles
-------------------------------------------------------------------------------
Tabbed by:Paul Banks
Email:

Tuning: Standard

Bass synth intro/refrain
G|---------------------------------------------------------------------------|
D|----15----15----15----15----12----12----12----12---------------------------|
A|---------------------------------------------------------------------------|
E|-13----13----13----13----10----10----10----10------------------------------|


G|---------------------------------------------------------------------------|
D|---8---8---8---8----12----12----12----12-----------------------------------|
A|---------------------------------------------------------------------------|
E|-6---6---6---6---10----10----10----10--------------------------------------|

bass synth verse
G|---------------------------------------------------------------------------|
D|----12----12----12----12----12----12----12----12---------------------------|
A|---------------------------------------------------------------------------|
E|-10----10----10----10----10----10----10----10------------------------------|

lead synth intro/refrain
e|----------13----------15----18----13----------13----------13----------15----18----13-------|
B|-15----------15----11----18----13----15----------15----------15----11----18----13----15----|
G|-------12----------------------------------------------12----------------------------------|
D|-------------------------------------------12----------------------------------------------|
A|-------------------------------------------------------------------------------------------|
E|-------------------------------------------------------------------------------------------|

was a pain to tab, but hopefully you love it as much as i do. you can get a similar 
to the lead synth by turning to your neck pick-up, tuning the tone knob to zero, and pumping 
the reverb. the bass synth sounds like a saw wave, but a fuzzed up bass should fill in nicely

| /  slide up
| \  slide down
| h  hammer-on
| p  pull-off
| ~  vibrato
| +  harmonic
| x  Mute note
===============================================================================
Tap to rate this tab
# A B C D E F G H I J K L M N O P Q R S T U V W X Y Z