Song name
# A B C D E F G H I J K L M N O P Q R S T U V W X Y Z

Crystal Fighters - Plage tab

Crystal Fighter - Plage

Normal Tuning

this is my first tab so if you have any complayns tell me!


Intro
						    x2
E|-------7-----------7------------9-----------7------|	
B|---------9-----------9------------9-----------9----| 
G|--9--------9--8--------8--9---------9--8--------8--|
D|---------------------------------------------------|    
A|---------------------------------------------------|
E|---------------------------------------------------|


Verse 1 
						    X12
E|-------7-----------7------------9-----------7------|	
B|---------9-----------9------------9-----------9----| 
G|--9--------9--8--------8--9---------9--8--------8--|
D|---------------------------------------------------|    
A|---------------------------------------------------|
E|---------------------------------------------------|

Do you want to go 
to the plage with me?
I'm going down-down-down 
there for the morning,
most beautiful girl I've ever seen.        
Calm down-down-down, 
my love is calling.

Do you want to go 
to the plage with me?
I'm going down-down-down 
there for the morning,
most beautiful girl I've ever seen.
Calm down-down-down, 
my love is calling.

After the two verses the guitar plays:
						  x4
E|----------  |---------7-------9-------7----------|
B|----------  |------9-------9-------9-----9--7--9-|
G|-----6--8-  |-9----------------------------------|
D|--9-------  |------------------------------------|
A|----------  |------------------------------------|
E|----------  |------------------------------------|


Chorus 1


E|--12--|
B|--12--|
G|------|
D|------|
A|------|
E|------|

Come over here with your heart

E|------7------7-----------
B|------9------9-------10--
G|------9------8-------10--
D|------9------9-------12--
A|-------------------------
E|-------------------------

And I will love your heart with mine.



Verse 2

    E      Emaj7    C#m     Emaj7
			       x4
E|----------7--------9-------7--|
B|--12------9--------9-------9--|
G|--13------8--------9-------8--|
D|--14------9--------11------9--|
A|--14------7-------------------|
E|--12--------------------------|


Do you want to go 
to the plage with me?
I'm going down-down-down 
there for the morning,
most beautiful girl I've ever seen.
Calm down-down-down, 
my love is calling.


Adter the second verse the first guitar keeps playing the chords. The second guitar goes back to:

Guitar 1

    E     Emaj7     C#m     Emaj7
			       x4
E|----------7--------9-------7--|
B|--12------9--------9-------9--|
G|--13------8--------9-------8--|
D|--14------9--------11------9--|
A|--14------7-------------------|
E|--12--------------------------|


guitar 2

E|----------  |---------7-------9-------7----------|
B|----------  |------9-------9-------9-----9--7--9-|
G|-----6--8-  |-9----------------------------------|
D|--9-------  |------------------------------------|
D|----------  |------------------------------------|
E|----------  |------------------------------------|

It's half-past the moonlight.
Nobody would see us go.
(And I wonder) If....
Maybe you will look into my eyes
and you will see just what you done to me.

guitar stops playing

Time is short. You know you only live one life.
It was love at first sight. 
And being by your side is the only thing on my mind

E|----------|
B|----------|
G|-----6--8-|
D|--9-------|
D|----------|
E|----------|

(So)

    E     Emaj7     C#m     Emaj7
			       
E|----------7--------9-------7--|
B|--12------9--------9-------9--|
G|--13------8--------9-------8--|
D|--14------9--------11------9--|
A|--14------7-------------------|
E|--12--------------------------|

guitar 2

E|----------| |---------7-------9-------7----------|
B|----------| |------9-------9-------9-----9--7--9-|
G|-----6--8-| |-9----------------------------------|
D|--9-------| |------------------------------------|
D|----------| |------------------------------------|
E|----------| |------------------------------------|


Do you want to go 
to the plage with me?
I'm going down-down-down 
there for the morning,
most beautiful girl I've ever seen.
Calm down-down-down, 
my love is calling.

    E     Emaj7     C#m     Emaj7
			       
E|----------7--------9-------7--|
B|--12------9--------9-------9--|
G|--13------8--------9-------8--|
D|--14------9--------11------9--|
A|--14------7-------------------|
E|--12--------------------------|


Come over here with your heart
And I will love your heart with mine.



    E     Emaj7     C#m     Emaj7
			       
E|----------7--------9-------7--|
B|--12------9--------9-------9--|
G|--13------8--------9-------8--|
D|--14------9--------11------9--|
A|--14------7-------------------|
E|--12--------------------------|

guitar 2

E|----------  |---------7-------9-------7----------|
B|----------  |------9-------9-------9-----9--7--9-|
G|-----6--8-  |-9----------------------------------|
D|--9-------  |------------------------------------|
D|----------  |------------------------------------|
E|----------  |------------------------------------|


So do you want to go 
to the plage with me?
I'm going down-down-down 
there for the morning,
most beautiful girl I've ever seen.
Calm down-down-down, 
my love is calling.

E|--7--|
B|--9--|
G|--9--|
D|--9--|
A|--7--|
E|--7--|

http://crystalfighters.com/
    
Tap to rate this tab
 
# A B C D E F G H I J K L M N O P Q R S T U V W X Y Z