Song name
# A B C D E F G H I J K L M N O P Q R S T U V W X Y Z

Culcha Candela - Schöne Neue Welt chords

Highlighted       Show chord diagrams
Standard Tuning

Do it some kind of Reggae ;)


|Em              |G                    |C                |B        |D    
|   Herzlich Will|komm',  Herzlich Will|komm' in unserer |schoenen |neuen
|Welt    Ab heute|bleibt nichts wie es |ist, alles wird  |auf  den |Kopf ge-
|stellt..........|.....................|.................|.........|.......
 
 1  2   3    4    1       2   3    4    1     2  3   4    1     2   3  4

You can do it like this:


	Em	  G	    C	    B	  D

|----7-7-7-7---3-3-3-3---3-3-3-3---2-2---5-2-----|
|----8-8-8-8---3-3-3-3---5-5-5-5---4-4---7-7-----|
|----9-9-9-9---4-4-4-4---5-5-5-5---4-4---7-7-----|
|----9-9-9-9---5-5-5-5---5-5-5-5---4-4---7-7-----|
|----7-7-7-7---5-5-5-5---3-3-3-3---2-2---5-5-----|
|----x-x-x-x---3-3-3-3---x-x-x-x---x-x---x-x-----|
     
     v v v v   v v v v   v v v v   v v   v v		upstroke

4/4  1 2 3 4   1 2 3 4   1 2 3 4   1 2   3 4   




Or do it like this:


	Em	  G	    C	    B	  D

|----77x-77x---33x-33x---33-33x---22x---52x-----|
|----88x-88x---33x-33x---55-55x---44x---77x-----|
|----99T-99x---44x-44x---55-55x---44x---77x-----|
|----99A-99x---55x-55x---55-55x---44x---77x-----|
|----77P-77x---55x-55x---33-33x---22x---55x-----|
|----xxx-xxx---33x-33x---xx-xxx---xxx---xxx-----|

     vv^ vv^   vv^ vv^   vv^ vv^  vv^   vv^		up-up-downstroke

4/4  1 2 3 4   1 2 3 4   1 2 3 4  1 2   3 4   




Keep one of those variations during the whole song!
Please send me an IM if you think something is wrong and could be better ;)
Tap to rate this tab
# A B C D E F G H I J K L M N O P Q R S T U V W X Y Z