Song name
# A B C D E F G H I J K L M N O P Q R S T U V W X Y Z

Cult - War tab

From: Bobalooy63@aol.com
Date: Sun, 30 Dec 2001 16:17:34 EST
Subject: c/cult/war.tab

Song: War
Artist: The Cult
Album: Beyond Good and Evil

Tabbed by Robert Pessagno

Drop D Tuning

Riff A:
|-------------------------|--------------------------|
|-------------------------|--------------------------|
|-------0-----0-----0-----|-------0------------0-----|
|-----3---3-----3-----3---|-----0---0--------0---0---|
|---5-------5-----5-----5-|---3-------3----5-------5-|
|-0-----------------------|-3------------5-----------|

Riff B:
|------------------------|---------------------|
|------------------------|---------------------|
|------------------------|---------------------|
|-------3--------------3-|-------3-------5b5-3-|
|-3-5-0---3-5-5--3-5-3---|-3-5-0---3-5-5-------|
|-3-5-0-------0--3-5-----|-3-5-0-------0-------|

Riff C:
|--------------|
|--------------|
|--------------|
|--------------|
|-10-12-10-12/-| <--slide down
|-10-12-10-12/-|

Riff D:
(Chorus)
|-------------------------------------------------------|
|-------------------------------------------------------|
|-------------------------------------------------------|
|-------------------------------------------------------|
|-10h12-12-12-12-12-12-12-10h12-10h12-12-12-12-12-12-12-|
|-10h12-12-12-12-12-12-12-10h12-10h12-12-12-12-12-12-12-|

|------------------------------|
|------------------------------|
|------------------------------|
|------------------------------|
|-3h5-5-5-5-5-5-5-3h5-5-3--3-3-|
|-3h5-5-5-5-5-5-5-3h5-5-3--3-3-|

Riff E:
(Still the Corus)
|----------------------------------------|
|----------------------------------------|
|----------------------------------------|
|----------------------------------------|
|-10h12-12-12-12-12-12-12-10h12-12-15-12-|
|-10h12-12-12-12-12-12-12-10h12-12-15-12-|

|------------------------------|
|------------------------------|
|------------------------------|
|------------------------------|
|-3h5-5-5-5-5-5-5-3h5-5-3--3-3-|
|-3h5-5-5-5-5-5-5-3h5-5-3--3-3-|

Legend:
b: Bend 1/2 step
/: Slide
h: Hammeron
Tap to rate this tab
 
# A B C D E F G H I J K L M N O P Q R S T U V W X Y Z