Song name
# A B C D E F G H I J K L M N O P Q R S T U V W X Y Z

Cult - Indian tab

 INDIAN
                 Astbury/Duffy
          Trans. by Slovak[wj] riverp@wp.pl


tune guitar 1/2 step down (Eb Ab Db Gb Bb Eb)


(1) intro and ver              (classic guit)

eb----0----0-0-0-0---0-0-0--------------------------------------------|
bb----0----3-3-3-3---1-0-1------0----3-3-3-3---0-0-0------------------|
gb----2----2-2-2-2---2-2-2------0----0-0-0-0---0-0-0------------------|
db----2----2-2-2-2---2-2-2------2----2-2-2-2---2-2-2------------------|
ab----0----0-0-0-0---0-0-0------2----2-2-2-2---2-2-2------------------|
Eb------------------------------0----0-0-0-0---0-0-0------------------|

Indian Woman, Let down your hair.  (x2)

Blood red wine, Layered in time.   (x2)

(2)                               (cello)

eb--------------------------------------------------------------------|
bb--------------------------------------------------------------------|
gb--------------------------------------------------------------------|
db--------------------------------------------------------------------|
ab-----7-5-7---7---0----------3---2-----------------------------------|
Eb--------------------------------------------------------------------|

(3) chorus                                (4)

eb----0000---3333----------0000-----------0000---3333-----------------|
bb----1111---0000---3333---1111-----------1111---0000---3-------------|
gb----0000---0000---2222---2222-----------0000---0000---2-------------|
db----2222---0000---0000---2222-----------2222---0000---0-------------|
ab----3333---2222---0000---0000-----------3333---2222---0-------------|
Eb----0000---3333-------------------------0000---3333-----------------|

Standing at the edge of the world,

Please help me girl, ooh, help me girl.
Tap to rate this tab
# A B C D E F G H I J K L M N O P Q R S T U V W X Y Z