Song name
# A B C D E F G H I J K L M N O P Q R S T U V W X Y Z

Cult - Rain1 tab

Help us improve GuitareTab! Take a short survey!
From: t89par@student.tdb.uu.se (Par Svensson)
Subject: GT: Rain (Cult)

As requested...

THE CULT - "Rain"

Comments, corrections etc. welcome.

Par Svensson, t89par@tdb.uu.se


Intro:

e|-------------------------------------1-0----------------------1h3-3-
B|-----3------1----------------------3----------1--------1-0----------
G|---2------2--------0-------------2----------2--------0--------------
D|-0------0--------2--------0----0----------0--------2----------------
A|---------------3--------2------------------------3------------------
E|----------------------3------------------------------------3--------


Riff #1:

e|---1-0--------1-0----3-3-1-0----------0-----
B|-3-----3--3-3-----1----------1--1-1-3---3-1-
G|--------------------------------------------
D|--------------------------------------------
A|--------------------------------------------
E|--------------------------------------------


Break:

e|----------------------------
B|-3-1-0-------0-3---1r0------
G|-------2-0h2-----------2-2--
D|----------------------------
A|----------------------------
E|----------------------------


Solo:

e|-1r0---1r0-----1r0--------0-3-3-1r0---1r0---------
B|-----3-----3-3-----3-3--3-----------3-----3-3r1h3-
G|--------------------------------------------------
D|--------------------------------------------------
A|--------------------------------------------------
E|--------------------------------------------------



Intro

Riff#1 x2

D5                                  C    G
  Hot sticky scenes you know what I mean

D5                                C    G
  Like a desert sun that burns my skin

D5          F           C      G          
  I've been waiting for her so long

D5         F        C            G
  Open the sky (and let her come down)

Riff#1
  Here comes the rain, here comes the rain

Riff#1
  Here she comes again, here comes the rain


[Power chords]: D-D-D-D-D-D-D-C-  x4


D5
  Hot sticky scenes... [as above]

  ...

Riff#1 
...Here she comes again, here comes the rain

Riff#1
  I love the rain, I love the rain

Riff#1
  Here she comes again, here comes the rain

  Rain...


Break

               E A  D  G  B  e
D5  (probably [x 12 12 14 15 x] or something)


Solo x2


Riff#1 till end
Related for Rain1 tab