Song name
# A B C D E F G H I J K L M N O P Q R S T U V W X Y Z

Cults - Rave On tab

This is my interpretation of the song "Rave On" by the band Cults.

It is one chord riff throughout the entire song. The first chord and second chord are 
played back and fourth until
the end of the riff where the last two chords are played.

Its simple and you can play it on acoustic and electric guitar (how they play it live)

Listen to the song for the rhythm and structure.
Rate and comment please.

Acoustic Guitar Tab:

e|--5----9-----10----12-----|
B|--5----9-----10----12-----|
G|--6----10----11----13-----|
D|--7----11----12----14-----|
A|--7----11----12----14-----|
E|--5----9-----10----12-----|

Electric Tab: Just power chords transposed from the acoustic tab. This is how they play 
the song live!

e|-------------------|
B|-------------------|
G|-----6--7--9-------|
D|--7--6--7--9-------|
A|--7--4--5--7-------|
E|--5----------------|

This is it for the song. There are some crazy solos they play but i think its more noise 
than anything and would be tough to tab out.
Tap to rate this tab
# A B C D E F G H I J K L M N O P Q R S T U V W X Y Z