Song name
# A B C D E F G H I J K L M N O P Q R S T U V W X Y Z

Cultura Profetica - Rimas Pa Seducir tab

                                               Bmaj11     
     E  E   E  Q    S  E  S E     S  E  S Q    Q.     E   
E||----------------------------|-------------------------|
B||--7---------7----7s-9--L-7--|----------7----7------7--|
G||-----6h--8------------------|--6s-8--L------8---------|
D||----------------------------|-------------------------|
A||----------------------------|-------------------------|
E||----------------------------|---------------7---------|


              D#m7                   E7M                            D#m7        
                                                         |---3---|              
  E  E  E  E  Q.     E     Q    Q    Q    E  E     E  E  E   E   E  Q    E  E   
--0---------------------|--6--------------7-----|--7-----7h--9p--7--6-------|
-----7--------7---------|-------7----9----9-----|--9----------------7-------|
--------8-----6---------|------------8-------8--|-----8------------------6--|
-----------8---------8--|-----------------------|--------------------------8|
------------------------|------------7----------|-------------------6-------|
--------------6---------|-----------------------|---------------------------|


            Bmaj11                                                      
  Q    Q    H           E.  E.  E.  E.  E.  S    E  E.  E.  E.  Q    S  
---------------------|------------------4---4-|--L--4------------------|
--7---------7--------|--7---------------4---4-|--L--4---4-------0------|
--6----6----8--------|--8---8-----------------|---------4---4---1------|
-------8-------------|------8-----------------|-------------4--------1-|
---------------------|------------------------|-----------------2------|
------------7--------|----------7---4---------|------------------------|


                   Emaj11                                                       
  S E  E   E  Q    Q      S    S E  E  E  H        S    S E  E.  E.  E.  E.  S  
--------------0-------------|----------0-------------|-------2-------------4|
--------------0----3--------|-------3-----4----------|-------4---4---------4|
-------1---L-------4------4-|--L----------3--------3-|--L--------3----------|
--L----1h--2----------------|----4-------------------|----4-----------------|
----2-----------------------|-------------2----------|----------------------|
-------------------3--------|------------------------|---------------2---4--|


                                             Emaj11                Bmaj11    
  E  E.  E.  E.  E.  E     E  E  E   E  Q    Q         E  E  E  E  H         
--L--4---4--------------|---------------0-----------|-----------0-----------|
--L--4---4---4-------0--|--L------------0----3------|--------3-----7--------|
-------------4---4---1--|--L-----1---L-------4------|--4-----------8--------|
-----------------4------|-----1--1h--2--------------|-----4-----------------|
---------------------2--|--L------------------------|-----------------------|
------------------------|--------------------3------|--------------7--------|


                                        E7M                      D#m7     
  E  E  E  E  E  Q.        E  Q    Q    Q.        E  E   E  Q    Q    E   
-----0------------------|-----6----------------|------------7----6-------|
--7-----7--------7------|----------7----9------|-----7h--9-------7-------|
-----------8-----6------|---------------8------|----------------------6--|
--------------8---------|--8-------------------|--8----------------------|
------------------------|---------------7------|-----------------6-------|
-----------------6------|----------------------|-------------------------|


               Bmaj11                                          E7M     
  E  Q    Q    Q.        E  E  E  E  E  Q.        E  Q    Q    Q.      
----------------------|-----0------------------|-----6----------------|
-----7---------7------|--7-----7--------7------|----------7----9------|
-----6----6----8------|-----------8-----6------|---------------8------|
--8-------8-----------|--------------8---------|--8-------------------|
----------------------|------------------------|---------------7------|
---------------7------|-----------------6------|----------------------|


                 D#m7                    Bmaj11                           
  E  E   E  Q    Q    E     E  Q    Q    Q.        E  E  E  E  E  Q.      
------------7----6-------|----------------------|-----0------------------|
-----7h--9-------7-------|-----7---------7------|--7-----7--------7------|
----------------------6--|-----6----6----8------|-----------8-----6------|
--8----------------------|--8-------8-----------|--------------8---------|
-----------------6-------|----------------------|------------------------|
-------------------------|---------------7------|-----------------6------|


               E7M                      D#m7                    Bmaj11  
  E  Q    Q    Q.        E  E   E  Q    Q    E     E  Q    Q    Q.      
-----6----------------|------------7----6-------|----------------------|
----------7----9------|-----7h--9-------7-------|-----7---------7------|
---------------8------|----------------------6--|-----6----6----8------|
--8-------------------|--8----------------------|--8-------8-----------|
---------------7------|-----------------6-------|----------------------|
----------------------|-------------------------|---------------7------|


                                        E7M                      D#m7     
  E  E  E  E  E  Q.        E  Q    Q    Q.        E  E   E  Q    Q    E   
-----0------------------|-----6----------------|------------7----6-------|
--7-----7--------7------|----------7----9------|-----7h--9-------7-------|
-----------8-----6------|---------------8------|----------------------6--|
--------------8---------|--8-------------------|--8----------------------|
------------------------|---------------7------|-----------------6-------|
-----------------6------|----------------------|-------------------------|


               E7M E7M                     Bmaj11                     E7M     
                                                           3   3              
  E  Q    Q    E   Q       E  E  Q    Q    Q         E  E  E.  Q.     Q.      
------------------------|-------------------------|-------------------------|
-----7-------------9----|--------9---------7------|------------7------9-----|
-----6----6--------8----|--8-----8----8----8------|--8-----8---8------8-----|
--8-------8-------------|-----9-------9-----------|-----8--8----------------|
-------------------7----|-------------------------|-------------------7-----|
------------------------|------------------7------|-------------------------|


                 D#m7                    E7M E7M                     Bmaj11  
  E  E   E  Q    Q    E     E  Q    Q    E   Q       E  E  Q    Q    Q       
------------7----6-------|------------------------|-------------------------|
-----7h--9-------7-------|-----7-------------9----|--------9---------7------|
----------------------6--|-----6----6--------8----|--8-----8----8----8------|
--8----------------------|--8-------8-------------|-----9-------9-----------|
-----------------6-------|-------------------7----|-------------------------|
-------------------------|------------------------|------------------7------|


                   E7M                              D#m7  
        3   3                            |---3---|        
  E  E  E.  Q.     Q.        E  E  E  E  E   E   E  Q     
--------------------------|--7-----7-----7h--9p--7--6----|
------------7------9------|--9-----9----------------7----|
--8-----8---8------8------|-----8-----8------------------|
-----8--8-----------------|------------------------------|
-------------------7------|-------------------------6----|
--------------------------|------------------------------|


      D#m7 D#m7 D#m7 Bmaj11                             
  E.  E.   E.   E.   H           E.  E.  E.  E.  E.  S  
------6----6----6-------------|--6---------------4---4-|
------7----9----7----7--------|--7---7-----------4---4-|
---------------------8--------|------8-----------------|
------------------------------|------------------------|
------6----6----6-------------|------------------------|
---------------------7--------|----------7---4---------|


                                            Emaj11                             
  E  E.  E.  E.  Q    S    S E  E   E  Q    Q      S    S E  E  E  H        S  
--L--4------------------|--------------0-------------|----------0-----------|
--L--4---4-------0------|--------------0----3--------|-------3-----4--------|
---------4---4---1------|-------1---L-------4------4-|--L----------3------3-|
-------------4--------1-|--L----1h--2----------------|----4-----------------|
-----------------2------|----2-----------------------|-------------2--------|
------------------------|-------------------3--------|----------------------|


                                                                       Emaj11  
  S E  E.  E.  E.  E.  S    E  E.  E.  E.  E.  E     E  E  E   E  Q    Q       
-------2---------------4-|--L--4---4--------------|---------------0---------|
-------4---4-----------4-|--L--4---4---4-------0--|--L------------0----3----|
--L--------3-------------|-------------4---4---1--|--L-----1---L-------4----|
----4--------------------|-----------------4------|-----1--1h--2------------|
-------------------------|---------------------2--|--L----------------------|
---------------2---4-----|------------------------|--------------------3----|


              Bmaj11                                            E7M     
  E  E  E  E  H           E  E  E  E  E  Q.        E  Q    Q    Q.      
-----------0-----------|-----0------------------|-----6----------------|
--------3-----7--------|--7-----7--------7------|----------7----9------|
--4-----------8--------|-----------8-----6------|---------------8------|
-----4-----------------|--------------8---------|--8-------------------|
-----------------------|------------------------|---------------7------|
--------------7--------|-----------------6------|----------------------|


                 D#m7                    Bmaj11                           
  E  E   E  Q    Q    E     E  Q    Q    Q.        E  E  E  E  E  Q.      
------------7----6-------|----------------------|-----0------------------|
-----7h--9-------7-------|-----7---------7------|--7-----7--------7------|
----------------------6--|-----6----6----8------|-----------8-----6------|
--8----------------------|--8-------8-----------|--------------8---------|
-----------------6-------|----------------------|------------------------|
-------------------------|---------------7------|-----------------6------|


               E7M                      D#m7                    Bmaj11  
  E  Q    Q    Q.        E  E   E  Q    Q    E     E  Q    Q    Q.      
-----6----------------|------------7----6-------|----------------------|
----------7----9------|-----7h--9-------7-------|-----7---------7------|
---------------8------|----------------------6--|-----6----6----8------|
--8-------------------|--8----------------------|--8-------8-----------|
---------------7------|-----------------6-------|----------------------|
----------------------|-------------------------|---------------7------|


                                        E7M                      D#m7     
  E  E  E  E  E  Q.        E  Q    Q    Q.        E  E   E  Q    Q    E   
-----0------------------|-----6----------------|------------7----6-------|
--7-----7--------7------|----------7----9------|-----7h--9-------7-------|
-----------8-----6------|---------------8------|----------------------6--|
--------------8---------|--8-------------------|--8----------------------|
------------------------|---------------7------|-----------------6-------|
-----------------6------|----------------------|-------------------------|


               Bmaj11                                          E7M     
  E  Q    Q    Q.        E  E  E  E  E  Q.        E  Q    Q    Q.      
----------------------|-----0------------------|-----6----------------|
-----7---------7------|--7-----7--------7------|----------7----9------|
-----6----6----8------|-----------8-----6------|---------------8------|
--8-------8-----------|--------------8---------|--8-------------------|
----------------------|------------------------|---------------7------|
---------------7------|-----------------6------|----------------------|


                 D#m7                    E7M E7M                     Bmaj11  
  E  E   E  Q    Q    E     E  Q    Q    E   Q       E  E  Q    Q    Q       
------------7----6-------|------------------------|-------------------------|
-----7h--9-------7-------|-----7-------------9----|--------9---------7------|
----------------------6--|-----6----6--------8----|--8-----8----8----8------|
--8----------------------|--8-------8-------------|-----9-------9-----------|
-----------------6-------|-------------------7----|-------------------------|
-------------------------|------------------------|------------------7------|


                   E7M                      D#m7                    E7M E7M   
        3   3                                                                 
  E  E  E.  Q.     Q.        E  E   E  Q    Q    E     E  Q    Q    E   Q     
--------------------------|------------7----6-------|-----------------------|
------------7------9------|-----7h--9-------7-------|-----7-------------9---|
--8-----8---8------8------|----------------------6--|-----6----6--------8---|
-----8--8-----------------|--8----------------------|--8-------8------------|
-------------------7------|-----------------6-------|-------------------7---|
--------------------------|-------------------------|-----------------------|


                  Bmaj11                     E7M     
                                  3   3              
  E  E  Q    Q    Q         E  E  E.  Q.     Q.      
-------------------------|--------------------------|
--------9---------7------|------------7------9------|
--8-----8----8----8------|--8-----8---8------8------|
-----9-------9-----------|-----8--8-----------------|
-------------------------|-------------------7------|
------------------7------|--------------------------|


                         D#m7        D#m7 D#m7 D#m7 Bmaj11    
              |---3---|                                       
  E  E  E  E  E   E   E  Q       E.  E.   E.   E.   H         
--7-----7-----7h--9p--7--6----|------6----6----6-------------|
--9-----9----------------7----|------7----9----7----7--------|
-----8-----8------------------|---------------------8--------|
------------------------------|------------------------------|
-------------------------6----|------6----6----6-------------|
------------------------------|---------------------7--------|


                                                                     Emaj11    
  E.  E.  E.  E.  E.  S    E  E.  E.  E.  Q    S    S E  E   E  Q    Q      S  
--6---------------4---4-|--L--4------------------|--------------0-----------|
--7---7-----------4---4-|--L--4---4-------0------|--------------0----3------|
------8-----------------|---------4---4---1------|-------1---L-------4----4-|
------------------------|-------------4--------1-|--L----1h--2--------------|
------------------------|-----------------2------|----2---------------------|
----------7---4---------|------------------------|-------------------3------|


  S E  E  E  H        S    S E  E.  E.  E.  E.  S    E  E.  E.  E.  E.  E   
----------0-------------|-------2---------------4-|--L--4---4--------------|
-------3-----4----------|-------4---4-----------4-|--L--4---4---4-------0--|
--L----------3--------3-|--L--------3-------------|-------------4---4---1--|
----4-------------------|----4--------------------|-----------------4------|
-------------2----------|-------------------------|---------------------2--|
------------------------|---------------2---4-----|------------------------|


                    Emaj11                Bmaj11                        
  E  E  E   E  Q    Q         E  E  E  E  H           W                 
---------------0-----------|-----------0-----------|-------------------|
--L------------0----3------|--------3-----7--------|--L----------------|
--L-----1---L-------4------|--4-----------8--------|--L----------------|
-----1--1h--2--------------|-----4-----------------|-------------------|
--L------------------------|-----------------------|-------------------|
--------------------3------|--------------7--------|--L----------------|


  W                   W                   W                   W                 
-------------------|-------------------|-------------------|----------------|
--L----------------|--L----------------|--L----------------|--L-------------|
--L----------------|--L----------------|--L----------------|--L-------------|
-------------------|-------------------|-------------------|----------------|
-------------------|-------------------|-------------------|----------------|
--L----------------|--L----------------|--L----------------|--L-------------|


  W                  
-------------------||
--L----------------||
--L----------------||
-------------------||
-------------------||
--L----------------||




Duration Legend
---------------
W - whole
H - half
Q - quarter
E - 8th
S - 16th
T - 32nd
X - 64th
. - note dotted
|-n-|  - n-tuplets


Tablature Legend
----------------
L - tied note
x - dead note
g - grace note
(n) - ghost note
> - accentuded note
NH - natural harmonic
AH - artificial harmonic
TH - tapped harmonic
SH - semi harmonic
PH - pitch harmonic
h - hammer on
p - pull off
b - bend
br - bendRelease
pb - preBend
pbr - preBendRelease
brb - bendReleaseBend
\n/ - tremolo bar dip
\n - tremolo bar dive
-/n - tremolo bar Release up
/n\ - tremolo bar inverted dip
/n - tremolo bar return
-\n - tremolo bar Release down
S - shift slide
s - legato slide
/ -  slide into from below or out of upwards
\ -  slide into from above or out of downwards
~ - vibrato
W - wide vibrato
tr - trill
TP - tremolo picking
T - tapping
S - slap
P - pop
< - fade in
^ - brush up
v - brush down
Tap to rate this tab
# A B C D E F G H I J K L M N O P Q R S T U V W X Y Z