Song name
# A B C D E F G H I J K L M N O P Q R S T U V W X Y Z

Cure - Fascination Street tab

MY FIRST TAB :D
Song: http://www.youtube.com/watch?v=FISdkTWPi4g  Tuning: STANDARD

Sorry if there's some guitars missing, can't hear :S

Guitar 1
E/--------------------------------------|
B/-10----------10-----------------------|
G/----12----------12--------------------|
D/-------10----------10-----------------|
A/----------12----------12--------------|
E/--------------------------------------|


Guitar 2
E/--------------------------------------|
B/---------8-6--------------------------|
G/-------4------5-3---------------------|
D/-----4------------------10-------12---|
A/-2-4-----------------10-------11------|
E/------------------10-------11---------| + 2, A string (Last time)
X2

(keyboard)

Guitar 1
E/--------------------------------------|
B/--8-----------------------------------|
G/--------------------------------------|
D/--------------------------------------|
A/--------------------------------------|
E/--------------------------------------|

Guitar 2
E/--------------------------------------|
B/-99--77--66------7-------5--------9---|
G/--------------------------------------|
D/--------------------------------------|
A/--------------------------------------|
E/--------------------------------------|

Guitar 2
E/--------------------------------------|
B/-999--77--66------7-------5-----------|
G/--------------------------------------|
D/--------------------------------------|
A/--------------------------------------|
E/--------------------------------------|

(vocals comes in)

Guitar 3
E/--------------------------------------|
B/--77--10--7--9--77---77--10--7--9-----|
G/--------------------------------------|
D/--------------------------------------|
A/--------------------------------------|
E/--------------------------------------|

Guitar 3
E/--------------------------------------|
B/--88-77-10-7-9--77---77--10-7--9--99--|
G/--------------------------------------|
D/--------------------------------------|
A/--------------------------------------|
E/--------------------------------------|

Guitar 3
E/--------------------------------------|
B/--77--10--7--9--77---77--10--7--9-----|
G/--------------------------------------|
D/--------------------------------------|
A/--------------------------------------|
E/--------------------------------------|

Guitar 3
E/--------------------------------------|
B/--88-77-10-7-9--77---77--10-7--9--99--|
G/--------------------------------------|
D/--------------------------------------|
A/--------------------------------------|
E/--------------------------------------|


Guitar 1 ( 2:19 )
E/--------------------------------------|
B/-10----------10-----------------------|
G/----12----------12--------------------|
D/-------10----------10-----------------|
A/----------12----------12--------------|
E/--------------------------------------|X2


Guitar 2
E/--------------------------------------|
B/---------8-6--------------------------|
G/-------4------5-3---------------------|
D/-----4------------------10-------12---|
A/-2-4-----------------10-------11------|
E/------------------10-------11---------| + 2, A string (Last time)


Guitar 3
E/-8-8--10-10-8--8-10-10-8-8------------|
B/--------------------------------------|
G/--------------------------------------|
D/--------------------------------------|
A/--------------------------------------|
E/--------------------------------------|X4

Guitar 3
E/-10-10-10--888-777-6-666----------------|
B/----------------------------------------|
G/----------------------------------------|
D/----------------------------------------|
A/----------------------------------------|
E/----------------------------------------|X8

Guitar 1
E/--------------------------------------|
B/-10----------10-----------------------|
G/----12----------12--------------------|
D/-------10----------10-----------------|
A/----------12----------12--------------|
E/--------------------------------------|X8

End , Thanks ! :S
Tap to rate this tab
# A B C D E F G H I J K L M N O P Q R S T U V W X Y Z