Guitaretab - guitar tabs
Song name
# A B C D E F G H I J K L M N O P Q R S T U V W X Y Z

Cure - Just Like Heaven tab

THIS IS THE COMPLETE TAB! i tab everything from the guitar chords to the parts the bass, 
and keyboard plays. this is my second tab, but i am pretty sure this is correct. check 
my acoustic version, where i play all of this together:
www.myspace.com/aresandaphrodite


Intro/Chorus
BASS:
e --------------------------------------------------------------------------|
B --------------------------------------------------------------------------|
G ------------------------------------------------X like 100----------------|
D --------------------------------------------------------------------------|
A --0-0-0-0-0-----------2-2-2-2-2--5-5-5-5-5--------------------------------|
E ------------0-0-0-0-0-----------------------------------------------------|

GUITAR 1:
e --------------------------------------------------------------------------|
B --------------------------------------------------------------------------|
G --------------------------------------------------------------------------|
D --------------------------------------------------------------------------|
A ----------------------5-5-5-5-5-9-9-9-9-9---------------------------------|
E --9-9-9-9-9-4-4-4-4-4-----------------------------------------------------|

GUITAR 2 (chords):
        A      E         Bmin     D
e -xxxx-0-0--x-0-0-0-0---x-2-2---x-2-2-2-2----------------------------------|
B -xxxx-2-2--x-0-0-0-0---x-3-3---x-3-3-3-3----------------------------------|
G -xxxx-2-2--x-1-1-1-1---x-4-4---x-2-2-2-2----------------------------------|
D -xxxx-2-2--x-2-2-2-2---x-4-4---x-0-0-0-0----------------------------------|
A -xxxx-0-0--x-2-2-2-2---x-2-2---x-0-0-0-0----------------------------------|
E -------------0-0-0-0------------------------------------------------------|

SYNTH:

e --17---16-----------------------------------------------------------------|
B ----------17-15---14-15-17------------------14--15-17-----x4--------------|
G ---------------------------14---13----------------------------------------|
D ------------------------------------14--12--------------------------------|
A --------------------------------------------------------------------------|
E --------------------------------------------------------------------------|

GUITAR 3 (riff):
e --------------------------------------------------------------------------|
B -14-14-14-12-12-10-10-9-9-7-7-5-5-3-3-5-3-3-2-2-0---0---------------------|
G --------------------------------------------------2-------x-2-------------|
D --------------------------------------------------------------------------|
A --------------------------------------------------------------------------|
E --------------------------------------------------------------------------|
then
e --------------------------------------------------------------------------|
B -0-0-0-2-2-3-3-5-5-7-7-9-9-10-10-12-12-14-14-15-15-14-14-12-12------------|
G --------------------------------------------------------------------------|
D --------------------------------------------------------------------------|
A --------------------------------------------------------------------------|
E --------------------------------------------------------------------------|

e --------------------------------------------------------------------------|
B -14-14-14-12-12-10-10-9-9-7-7-5-5-3-3-5-3-3-2-2-0---0---------------------|
G --------------------------------------------------2-----------------------|
D --------------------------------------------------------------------------|
A --------------------------------------------------------------------------|
E --------------------------------------------------------------------------|
THEN Robert Smith sings....this kinda repeats. some parts have the synth, most of it 
have the guitar riff until"i'll run away with you", then it plays.

this is also played sometimes when the guitar chord is playing the D, mostly during the second verse:
[ Tab from: http://www.guitaretab.com/c/cure/4634.html ]
Little guitar thingy:
e --2------2-----2-----------------------------------------------------------|
B ----3------3-----3---------------------------------------------------------|
G ------2------2-------------------------------------------------------------|
D ---------------------------------------------------------------------------|
A ---------------------------------------------------------------------------|
E ---------------------------------------------------------------------------|
 THEN COMES THE CHORUS:
starting on you, "lost and only"
BASS:
e --------------------------------------------------------------------------|
B --------------------------------------------------------------------------|
G --------------------------------------------------------------------------|
D -----------------------------------------0--------------------------------|
A --------------------------------------------------------------------------|
E ---2-2-2--3-3-3-2-2-2-3-3-3-2-2-2-3-3-3-------0-0-0-0-0-------------------|

GUITAR 1*:
this mostly just strums through an F# chord, then a D:
e ------2---------2--------2------2-----------------------------------------|
B -----2---------2--------2------3------------------------------------------|
G ----3---------3--------3------2-------------------------------------------|
D ---4---------4--------4------0--------------------------------------------|
A --4---------4--------4------0--------2-2-2-2-2----------------------------|
E -2---------2--------2-----------------------------------------------------|
*WARNING: this part does NOTHING durnig the G. don't strum the F that slowly.

GUITAR 2:
this part just strums an F# and a G, i do both as bar chords. then it plays a full D and E:
    F#    G        D      E
e --2-----3--------2------0-------------------------------------------------|
B --2-----3--------3------0-------------------------------------------------|
G --3-----4----x3--2------1-------------------------------------------------|
D --4-----5--------0------2-------------------------------------------------|
A --4-----5--------0------2-------------------------------------------------|
E --2-----3---------------0-------------------------------------------------|

SYNTH:
e --14----15-17-19-14-------------14---15-17-19-10--------------------------|
B -----------------------14-15-17-------------------------------------------|
G --------------------------------------------------------------------------|
D --------------------------------------------------------------------------|
A --------------------------------------------------------------------------|
E --------------------------------------------------------------------------|

then everything returns to the verse part. this is the piano solo that follows the first 
and also plays during the second verse:
PIANO:
e -12-12-12-12-9-----------------9-----12-12-12-12-9----------------9-------|
B ---------------10--12-12-10-12---------------------10-12-12-10-12---------|
G ---------------------------------11---------------------------------------|
D --------------------------------------------------------------------------|
A --------------------------------------------------------------------------|
E --------------------------------------------------------------------------|

e -10-9-10-12----17-17-17-17-19-21-17-19-17-19-17-19--(-10-9-10-9-------x2--|
B ------------10-------------------------------------------------10-10)-----|
G --------------------------------------------------------------------------|
D --------------------------------------------------------------------------|
A --------------------------------------------------------------------------|
E --------------------------------------------------------------------------|

that's prett much it. it all ends on a D chord, so its the same as the first chorus, but 
cuts out at the end except for a D chord...

here's the lyrics with chords:
                   A              E
Show me, show me, show me how you do that trick,
        Bmin          D
The one that makes me scream, she said
    A                  E
The one that makes me laugh, she said
    Bmin              D
And threw her arms around my neck.
A               E
Show me how you do it,
    Bmin             D
And I promise you, I promise that
         A             E
Iíll run away with you
         Bmin          D
Iíll run away with you
(riff)
   A             E
Spinning on that dizzy edge,
   Bmin               D
I kissed her face and kissed her head
     A                 E                  Bmin
And dreamed of all the different ways I had
            D
To make her glow.
A               E
Why are you so far away? she said
Bmin           D                     A           E
Why wonít you ever know that Iím in love with you
       Bmin               D
That Iím in love with you


F#    G
You, soft and only
F#    G
You, lost and lonely
F#    G
You, strange as angels
D
Dancing in the deepest oceans,
E
Twisting in the water
                          A
Youíre just like a dream.
(piano solo)

A                   E
Daylight licked me into shape
Bmin                D
I must have been asleep for days
A                   E
And moving lips to breathe her name
Bmin             D
I opened up my eyes
A                 E
And found myself alone, alone,
Bmin           D
Alone above a raging sea
A                   E
That stole the only girl I loved,
Bmin                 D
And drowned her deep inside of me

F#   G
You, soft and only
F#   G
You, lost and lonely
F#   G                D
You, Just like heaven


~FIN~
ps sorry if there are any mistakes!


-Ares
Related for Just Like Heaven tab