Song name
# A B C D E F G H I J K L M N O P Q R S T U V W X Y Z

Cure - Love Song tab

ate: Sat, 23 Nov 2002 18:58:57 -0200
From: Eduardo Paiva Santana 
Subject: c/cure/lovesong.tab

Song Name: Lovesong
Artist: The Cure
Album: Greatest Hits (Acoustic)
Transcriber: Eduardo Santana (except the solo, that I've found somewhere 
in the internet)
E-mail: dudusan@uai.com.br


Intro: Am G F Em
e|--7--|
B|--5--|
G|--5--|
D|--7--|
A|-----|
E|-----|
 Play all along the song every other time you play the intro/verse chords

e|-------------------------------------------------------------|
B|-------------------------------------------------------------|
G|--5-7/9-7--9-7\5-4----5-7/9-7-9-7\5--------------------------|
D|-------------------7-----------------------------------------|
A|-------------------------------------------------------------|
E|-------------------------------------------------------------|

Verse: Am G F Em

Chorus: F G Am C 3x
        F G
e|-------------------------------------------------------------|
B|--1--1-1--3-----5--------------------------------------------|
G|--2--2-2--4-2-4-5-5--7-5-4-2-0-2-----------------------------|
D|--3--3-3--5-----7----------------3---------------------------|
A|-------------------------------------------------------------|
E|-------------------------------------------------------------|

Solo: Am G F Em
e|--7-7-7-7---------7------7-7-7-7--------7-8/(10)-10-10--------------------|
B|----------8---------8------------8----------------------8-8-8-8--8/(10)-10|
G|----------------5---------------------5-----------------------------------|
D|--------------------------------------------------------------------------|
A|--------------------------------------------------------------------------|
E|--------------------------------------------------------------------------|

e|-------------------------------------------------------------------------|
B|--10--(3)b4r3-1-3--5-3--1-1-1-1-1-1-0------------------------------------|
G|--------------------------------------0-2-0-2----------------------------|
D|-------------------------------------------------------------------------|
A|-------------------------------------------------------------------------|
E|-------------------------------------------------------------------------|
Tap to rate this tab
# A B C D E F G H I J K L M N O P Q R S T U V W X Y Z