Song name
# A B C D E F G H I J K L M N O P Q R S T U V W X Y Z

Cure - Subway Song tab

Help us improve GuitareTab! Take a short survey!
e: Wed, 29 Apr 1998 21:03:20 -0600
From: Action Benny 
Subject: c/cure/subway_song.tab

Song: Subway Song
By: The Cure
Album: Boys Don't Cry
Transcribed: Benny 

Lyrics:
Midnight in the subway 
She's on her way home 
She tries hard not to run 
But she feels she's not alone 
Echoes of footsteps 
Follow close behind 
But she dare not turn around 

Turn around 

The guitar part is perfect...its the bass part i am having trouble with.

Guitar:
E--4-4-4-3-3-3-1-1-1---1------------------------|
B--------------------4--------------------------|
G----------------------------------------------.|
D----------------------------------------------.|
A-----------------------------------------------|
E-----------------------------------------------|


Bass v.1: (I am more partial to v.1)
G--------------------------------------|
D-------------------------------------.|
A-------------------4-4-4-4-4-4-3-----.|
E--0--1-1-0--2--4----------------------|

When it changes...

G-----------------------------------------------|
D----------------------------------------------.|
A--0-2-2--0--1--2------------------------------.|
E------------------2-2-2-2-2-2-4-4-4-4-4-4------|

OR its this

Bass v.2:
G--------------------------------------|
D-------------------------------------.|
A-------------------5-5-5-5-5-5-4-----.|
E--0--2-2-0--2--5----------------------|

then changes to..
G-----------------------------------------------|
D----------------------------------------------.|
A--0-2-2--0--1--2------------------------------.|
E------------------3-3-3-3-3-3-5-5-5-5-5-5------|

Please, if you see this, please let me know what you think.  Any corrections 
or comments would be appreciated!
Related for Subway Song tab