Song name
# A B C D E F G H I J K L M N O P Q R S T U V W X Y Z

Current-93 - The Great Bloody And Bruised Veil Of This World tab

Help us improve GuitareTab! Take a short survey!
-------------------------------------------------------------------------------
     The Great, Bloody and Bruised Veil of this World - Current 93
-------------------------------------------------------------------------------
Tabbed by: Dominic Tucker	
Email: cursed_reverence@hotmail.com

Tuning: standard

this is the main tune (without the intro)

e|-------------------------------------------------------|
B|----3--------3-----0------------------0----------1--0--|
G|----------0-----------0------------0-------------------|
D|-------2-----------------2------2--------------2-------|
A|----3--------------3---------2--------------3----------|
E|-------------------------------------------------------|

e|-----------------------------1--------0-------------------------------------------------3----|
B|--0--------0---1---------1------3-----------0--0----------1--------0--------------------3----|
G|-----0------------0----------------2-----2----------------------0-----0---------------0------|
D|--------2------------2-------0-------------------------0-----2-----------2---------0---------|
A|--2------------3-----------------------------------2------3---------------------2------------|
E|-----------------------------------------------3-----------------------------3---------------|

variation about half way through:


e|-------------------3--------2-----0-----------------------------|
B|----3--------3--------3--------3---------------0----------1--0--|
G|----------0-----0--------0------------------0-------------------|
D|-------2---------------------------------2--------------2-------|
A|----3--------------3------------------2--------------3----------|
E|----------------------------------------------------------------|

===============================================================================
Related for The Great Bloody And Bruised Veil Of This World tab