Song name
# A B C D E F G H I J K L M N O P Q R S T U V W X Y Z

Custom Kings - Carried Away tab

K this actually is my first tab, so i chose what i think is a easy song that no1 else 
tabbed to start lol.

basically i think you repeat this throughout the whole song

------------/------------/--------------/--------------|
------------/------------/--------------/--------------|
------------/------------/--5--55s7--7--/--------------|
--2--2--2--2/--5--5--5--5/-5--5-5s7-7-7-/--2--2--2--2--|
-2--2--2--2-/-5--5--5--5-/3--3--3s55---5/-2--2--2--2---|
0--0--0--0--/3--3--3--3--/--------------/0--0--0--0----|

------------/------------/------------/----------------|
------------/------------/------------/----------------|
------------/------------/--5555--7777/----------------|
--2222--2222/--5--5--5--5/-5-555-7-777/--2--2222222----|
-2-222-2-222/-5--5--5--5-/3--3335--555/-2--2-222222----|
0--0000--000/3--3--3--3--/------------/0--0--000000----|

sorry its abit messy

http://www.akalamusic.com/AkalaMusic.html
Tap to rate this tab
# A B C D E F G H I J K L M N O P Q R S T U V W X Y Z