Song name
# A B C D E F G H I J K L M N O P Q R S T U V W X Y Z

Cute Is What We Aim For - Time tab

Here is a my version of the song expressed in power chords and such.

Intro/Verse:

e|---------|---------|---------|---------|
B|-----2---|-----2---|-----2---|-----2---|
G|---1---1-|---1---1-|---1---1-|---1---1-|
D|-0-------|---------|---------|---------|
A|-------- |---------|---------|-0-------|
E|---------|-1-------|-2-------|---------|

Pre Chorus:

e------|
B------|
G-77777|
D-77777|
A-00000|
E------|

Chorus:

"I need the product of your fears in the form...."

(you can just let the chord ring or strum)

e-----------|
B-----------|
G---7-7-----|
D-5-7-7-4-5-|
A-5-0-5-5-5-|
E-3-----2-3-|

Okay well of course there is another verse and chorus or whatever but here is the bridge

Bridge:

"Rotating i'm shaking i hope you turn around in time..."

Should probably strum these chords or palm mute whatever sounds best to u.

e---------|
B---------|
G-4-7-----|
D-4-7-7-5-|
A-2-5-7-5-|
E-----5-3-|
Tap to rate this tab
 
# A B C D E F G H I J K L M N O P Q R S T U V W X Y Z