Song name
# A B C D E F G H I J K L M N O P Q R S T U V W X Y Z

D At Sea - December tab

D# Tuning

Hey guys, this tab should be pretty close. I tried to make it work for just one 
guitar. Any corrections are welcome. Tune one fret down.



"My heart is not set on december"

|-0--0--0----0--0--0-|
|-3--3--0----3--3--8-|
|-0--0--0----0--0--0-|
|-2--4--2----2--4--5-|
|-3--5--2----3--5--7-|
|-------0----------0-|


"The wolfs, they hunt for me"

|-0--0--0--0-/-0-|
|-0--3--1--3-/-5-|
|-0--0--0--0-/-0-|
|-2--4--2--4-/-4-|
|-2--5--3--5-/-5-|
|-0--------------|


"I'm not looking forward to the funerals of my family and friends"

|-0--0--0--0-/-0-|
|-0--3--1--3-/-5-|
|-0--0--0--0-/-0-|
|-2--4--2--4-/-4-|
|-2--5--3--5-/-5-|
|-0--------------|


after "How much I love you"

|-0--5-|
|-3--3-|
|-0--0-|
|-2--4-|
|-3--5-|
|------|


Chorus "My heart is not set on December"

|-0--0--0-|
|-3--3--0-|
|-0--0--0-|
|-2--4--2-|
|-3--5--2-|
|-------0-|

Interlude

|-7-7-10-10-7-7-0-|
|-8-8--8--8-8-8-8-|
|-9-9--9--9-9-9-9-|
|-----------------|
|-----------------|
|-----------------|


"I still have my goals" & "I'll love because there's too much hate in the world"

|-0--0--0--0--|
|-0--3--1--3--|
|-0--0--0--0--|
|-2--4--2--4--|
|-2--5--3--5--|
|-0-----------|


after "Like spiders crawling down my throat"

|-0--5-|
|-3--3-|
|-0--0-|
|-2--4-|
|-3--5-|
|------|


CHORUS


Bridge

|--------------------------------|
|-0--0--0--0--0----0-0--0--0--0--|
|-0--0--0--0--0----0-0--0--0--0--|
|-5--9--9/12--7----7/9--5--9--7--|
|-3--7--7/10--5----5/7--3--7--5--|
|--------------------------------|


"I'm not afraid of failure"

|-----------|
|-0--0--0---|
|-0--0--0---|
|-5--7--9---|
|-3--5--7---|
|-----------|


"No ..."

|-3------------2-------0------------0---|
|-----------------------------------0---|
|-----0-----------2--------4--------0---|
|---4---4---4-----4------5---5---5--2---|
|---------5--------------------7----2---|
|-----------------------------------0---|


"I'm here, I'm now"

|-0--0--0----0--0--0--0/5-5-5-5/3-3-3--|
|-3--3--0----3--3--0--3/3-3-3-3-3-3-3--|
|-0--0--0----0--0--0--0/0-0-0-0-0-0-0--|
|-2--4--2----2--4--2--4/4-4-4-4-4-4-4--|
|-3--5--2----3--5--2--5/5-5-5-5-5-5-5--|
|-------0----------0-------------------|
Tap to rate this tab
# A B C D E F G H I J K L M N O P Q R S T U V W X Y Z