Song name
# A B C D E F G H I J K L M N O P Q R S T U V W X Y Z

D At Sea - Memories tab

D AT SEA
Memories
Standard Tuning


Intro/Verse - Guitar 1
       d  d   d u d u  u d u d u d u
-3~~-|-3~-0~--3~3~0~3~-3~0~0~3~3~0~0~-2~-2~-2~2~2~2~-2~2~2~2~2~2~2~2~--|
-3~~-|-3~-3~--3~3~3~3~-3~3~3~3~3~3~3~-3~-3~-3~3~3~3~-3~3~3~3~3~3~3~3~--|
-0~~-|-0~-0~--0~0~0~0~-0~0~0~0~0~0~0~-2~-2~-2~2~2~4~-4~4~4~4~2~2~0~0~--|
-2~~-|-2~-2~--2~2~2~2~-2~2~2~2~2~2~2~-0~-0~-0~0~0~0~-0~0~0~0~0~0~0~0~--|
-2~~-|-2~-2~--2~2~2~2~-2~2~2~2~2~2~2~----------------------------------|
-0~~-|-0~-0~--0~0~0~0~-0~0~0~0~0~0~0~----------------------------------|
Intro/Verse - Guitar 2
-----|-----------------------------------------------------------------|
-----|-8~-8~--8~8~8~8~-8~8~8~8~8~8~8~-7~-7~-7~7~7~7~-7~7~7~7~7~7~7~7~--|
-----|-9~-7~--9~9~7~9~-9~7~7~9~9~7~7~-7~-7~-7~7~7~7~-7~7~7~7~7~7~7~7~--|
-----|-9~-9~--9~9~9~9~-9~9~9~9~9~9~9~-7~-7~-7~7~7~7~-7~7~7~7~7~7~7~7~--|
-----|-7~-7~--7~7~7~7~-7~7~7~7~7~7~7~-5~-5~-5~5~5~5~-5~5~5~5~5~5~5~5~--|
-----|-0~-0~--0~0~0~0~-0~0~0~0~0~0~0~----------------------------------|..
||
Guitar 1 
--3~-0~--3~3~0~3~-3~0~0~3~3~0~0~-2~-2~-2~2~2~2~-2~2~2~2~2~2~2~2~-------|
--3~-3~--3~3~3~3~-3~3~3~3~3~3~3~-3~-3~-3~3~3~3~-3~3~3~3~3~3~3~3~-------|
--0~-0~--0~0~0~0~-0~0~0~0~x-x-x~-2~-2~-2~2~2~2~-2~2~2~2~2~2~2~2~-------|
--2~-2~--2~2~2~2~-2~2~2~2~0-0-0--0~-0~-0~0~0~0~-0~0~0~0~0~0~0~0~-------|
--2~-2~--2~2~2~2~-2~2~2~2~---------------------------------------------|
--0~-0~--0~0~0~0~-0~0~0~0~---------------------------------------------|
Guitar 2
-----------------------------------------------------------------------|
--8~-8~--8~8~8~8~-8~8~8~8~-------7~-7~-7~7~7~--------------------------|
--9~-7~--9~9~7~9~-9~7~7~9~111111-7~-7~-7~7~7~11-111111117~7~7~7~-------|
--9~-9~--9~9~9~9~-9~9~9~9~x-x-x--7~-7~-7~7~7~x--x-x-x-x-x-x-x-x--------|
--7~-7~--7~7~7~7~-7~7~7~7~9~9~9~-5~-5~-5~5~5~9~-9~9~9~9~5~5~5~5~-------|
--0~-0~--0~0~0~0~-0~0~0~0~---------------------------------------------|..
||
Guitar 1
--3~-0~--3~3~0~3~-3~0~0~3~3~0~0~-2~-2~-2~2~2~2~-2~2~2~2----------------|
--3~-3~--3~3~3~3~-3~3~3~3~3~3~3~-3~-3~-3~3~3~3~-3~3~3~3~---------------|
--0~-0~--0~0~0~0~-0~0~0~0~0~0~0~-2~-2~-2~2~2~4~-4~4~4~4~---------------|
--2~-2~--2~2~2~2~-2~2~2~2~2~2~2~-0~-0~-0~0~0~0~-0~0~0~0~---------------|
--2~-2~--2~2~2~2~-2~2~2~2~2~2~2~--------------------------0h2p0--------|
--0~-0~--0~0~0~0~-0~0~0~0~0~0~0~--------------------------------3p2----|
Guitar 2
-----------------------------------------------------------------------|
--8~-8~--8~8~8~8~-8~8~8~8~8~8~8~-7~-7~-7~7~7~7~-7~7~7~7~---------------|
--9~-7~--9~9~7~9~-9~7~7~9~9~7~7~-7~-7~-7~7~7~7~-7~7~7~7-~--------------|
--9~-9~--9~9~9~9~-9~9~9~9~9~9~9~-7~-7~-7~7~7~7~-7~7~7~7~-2h4p2-2p0-----|
--7~-7~--7~7~7~7~-7~7~7~7~7~7~7~-5~-5~-5~5~5~5~-5~5~5~5~---------------|
--0~-0~--0~0~0~0~-0~0~0~0~0~0~0~---------------------------------------|..
||
Guitar 1 
--3~-0~--3~3~0~3~-3~0~0~3~3~0~0~-2~-2~-2~2~2~2~-2~2~2------------------|
--3~-3~--3~3~3~3~-3~3~3~3~3~3~3~-3~-3~-3~3~3~3~-3~3~3~~----------------|
--0~-0~--0~0~0~0~-0~0~0~0~x-x-x~-2~-2~-2~2~2~2~-2~2~2~-----------------|
--2~-2~--2~2~2~2~-2~2~2~2~0-0-0--0~-0~-0~0~0~0~-0~0~0~-----------------|
--2~-2~--2~2~2~2~-2~2~2~2~---------------------------------------------|
--0~-0~--0~0~0~0~-0~0~0~0~---------------------------------------------|
Guitar 2
-----------------------------------------------------------------------|
--8~-8~--8~8~8~8~-8~8~8~8~-------7~-7~-7~7~7~--------------------------|
--9~-7~--9~9~7~9~-9~7~7~9~111111-7~-7~-7~7~7~11-111111-----------------|
--9~-9~--9~9~9~9~-9~9~9~9~x-x-x--7~-7~-7~7~7~x--x-x-x------------------|
--7~-7~--7~7~7~7~-7~7~7~7~9~9~9~-5~-5~-5~5~5~9~-9~9~9~-----------------|
--0~-0~--0~0~0~0~-0~0~0~0~---------------------------------------------|



Chorus - Guitar 1                              x2
--3~--3~-3~3~0~--0~-0~0~3~--3~-3~3~2~--2~-2~2~--|-3~-----2~------------|
--3~--3~-3~3~1~--1~-1~1~3~--3~-3~3~3~--3~-3~3~--|-3~~----3~------------|
--0~--0~-0~0~0~0-0~-0~0~0~--0~-0~0~2~2-2~-2~2~--|-0~-----2~------------|
--2~2-2~-2~2~2~2-2~-2~2~0~0-0~-0~0~0~0-0~-0~0~--|-2~-----0~------------|
--2~2-2~-2~2~3~3-3~-3~3~2~2-2~-2~2~-------------|-2~-------------------|
--0~0-0~-0~0~-----------3~3-3~-3~3~-------------|-0~-------------------|
Chorus - Guitar 2                                                     x2
---------10---------------------10-------------------------------------|
-8--7-------8--8--7--8--8--7-------8--8--7--8--------------------------|
-------7----------------------7----------------------------------------|
-----------------------------------------------------------------------|
-----------------------------------------------------------------------|
--~--------------------------------------------------------------------|



                     *PLAY ALL OF THAT AGAIN*


Interlude - Guitar 1      x5 More open and fuller as you go on        x4
--3~-------0~----2~--------|-------------------------------------------|
--3~-------1~----3~--------|-------------------------------------------|
--0~-------0~----2~--------|-------------------------------------------|
--2~-------2~----0~--------|--------5-5-5-5---------7-7-7-7------------|
--2~-------3~~-------------|--2--2--3-3-3-3-5-5-5-5-5-5-5-5------------|
--0~-----------------------|--0--0----------3-3-3-3--------------------|
Interlude - Guitar 2          *  *  * * * * * * * * * * * * 
---------------------------|-------------------------------------------|
---------------------------|-------------------------------------------|
---------------7~----------|-------------------------------------------|
----7h9~-9~7~7~---7~~-\\4--|-------------------------------------------|
---------------------------|-------------------------------------------|
--~------------------------|-------------------------------------------|



Last chorus - Guitar 1                         x4
--3~--3~-3~3~0~--0~-0~0~3~--3~-3~3~2~--2~-2~2~--|-3~-----2~-----3~-----|
--3~--3~-3~3~1~--1~-1~1~3~--3~-3~3~3~--3~-3~3~--|-3~~----3~-----3~-----|
--0~--0~-0~0~0~0-0~-0~0~0~--0~-0~0~2~2-2~-2~2~--|-0~-----2~-----0~-----|
--2~2-2~-2~2~2~2-2~-2~2~0~0-0~-0~0~0~0-0~-0~0~--|-2~-----0~-----0~-----|
--2~2-2~-2~2~3~3-3~-3~3~2~2-2~-2~2~-------------|-2~------------2~-----|
--0~0-0~-0~0~-----------3~3-3~-3~3~-------------|-0~------------3~-----|
Last Chorus - Guitar 2                                                x4
---------10---------------------10-------------------------------------|
-8--7-------8--8--7--8--8--7-------8--8--7--8--------------------------|
-------7----------------------7----------------------------------------|
-----------------------------------------------------------------------|
-----------------------------------------------------------------------|
--~--------------------------------------------------------------------|
Theres another melody thing here but i don't think its guitar


Done :P
Tap to rate this tab
# A B C D E F G H I J K L M N O P Q R S T U V W X Y Z