Song name
# A B C D E F G H I J K L M N O P Q R S T U V W X Y Z

D:a:d - Point Of View tab

D:A:D - Point of View
from the album No Fuel Left For The Pilgrims (1989)

(Semi acoustic guitar intro/solo)

starts
0:08 - 0:20
e|--------------------------------------------------------------------|
b|--------------------------------------------------------------------|
g|--------------------------------------------------------------------|
d|--------------------------------------------------------------------|
a|---------5~--5/7------------5~--------5~----5-------------5~--------|
E|---7-9------------9--9-9-7-----7-9-7-----------9--9-9-7-------------|


0:22 - 0:36
e|---------------------------------------------------------------------|
b|---------------------------------------------------------------------|
g|---------------------------------------------------------------------|
d|---------------------------------------------------------------------|
a|------5~-----------------------5-----------5~--5---------------------|
E|--7-9------9-7-5-9~---7-9----7---9-7---7-9-------9---5-8-5----5~~5~2~|
Tap to rate this tab
# A B C D E F G H I J K L M N O P Q R S T U V W X Y Z