Song name
# A B C D E F G H I J K L M N O P Q R S T U V W X Y Z

Dad - Point Of View tab

POINT OF VIEW by D.A.D


The intro-tab is simplified to make it less cluttered. Listen to the album for the extra strokes


Intro:

   B5
E|------------------------------------------------------|
B|------------------------------------------------------|
G|-----------------4-4---4-2--2-4---4-4---4-2--2-4------|
D|-----------------4-4---4-2--2-4---4-4---4-2--2-4------|
A|-2-2-2-2-2-2-2-2----------------------------------2-4-|
E|------------------------------------------------------|

   D       E         Bm        D       E         Bm
E|-------|---------|---------|-------|---------|---------|
B|-------|---------|---------|-------|---------|---------|
G|-------|---------|---------|-------|---------|---------|
D|-------|---------|---------|-------|---------|---------|
A|-5---5-|-4---2-4-|-5---2-4-|-5---5-|-4---4-2-|-2---2-4-|
E|-------|---------|---------|-------|---------|---------|

   D             F#m     A             E
E|-------------|-------|-------------|---------|
B|-------------|-------|-------------|---------|
G|-------------|-------|-------------|---------|
D|-------------|-------|-------------|---------|
A|-5---5-4-2-4-|-4---0-|-4---4-2-0-2-|-2---2-4-|
E|-------------|-------------------------------|

   Bm      E       F#m
E|-------|-------|-------------|
B|-------|-------|-------------|
G|-------|-------|-------------|
D|-------|-------|-------------|
A|-5---5-|-4---4-|-----0-2-----|
E|-------|-------|-2-------2---|



D                   A                    F#m
   Yeah, you like a man when his mind is strong
D                    A                   Bm
   When his ego's so high he couldn't be wrong
D                 A                          F#m
   And you like a man when he's right at the top
D                  A                            Bm
   When his ego is growing and it don't seem to stop

        D       E                   Bm
See I'd like to share your point of view
   D            E       Bm
As long as it's my view too
D              F#m    A                      E
Can't win on a comprise I'd rather loose on my own
         D            E                  F#m
'Cause I feel kind of good when I'm all alone

D                   A                         F#m
   And you play the games by the book and the rules
D                A                         Bm
   See I play'em backwards - let's see who lose
D                             A                   F#m
   Yeah, you don't go for the man, you go for his balls
D                   A                     Bm
   So let's see who stands, let's see who falls

          D       E                   Bm
Yeah, I'd like to share your point of view
   D            E       Bm
As long as it's my view too
D              F#m     A                     E
Can't win on a comprise I'd rather loose on my own
         D            E                  F#m
'Cause I feel kind of good when I'm all alone
         D      E                   F#m
And if I take a stand it will be my own - And take it yeah!


|D| - |A| - |F#m| - |F#m|
|D| - |A| - |Bm| - |Bm|
|D| - |A| - |F#m| - |F#m|
|D| - |A| - |B5| - |B5|

B5
Take a look in these eyes
Do they look sincere?
Do you read my lips?
Do I make it clear? Bye bye so long, I don't want you here...

        D        E                   Bm
Yeah, I tried to share your points of view
       D         E            Bm
If not all, then maybe just a few
D                F#m       A                     E
Couldn't win on a comprise I'd rather loose on my own
         D            E                  F#m
'Cause I feel kind of good when I'm all alone
         D      E                 F#m
And if I take a stand it'll be my own
              D
Get out of my heart,
       E
and my mind,
       F#m
and my home
Tap to rate this tab
# A B C D E F G H I J K L M N O P Q R S T U V W X Y Z