Dad - Revolution tab

Artist: D.A.D
Album: Monster Philosophy
Song: Revolution

Tabbed By : Ollerfather
Tuning: Standard (EADGBe)

Intro
e|---------------------|
B|---------------8-6---|
G|-5-7-8-8-7---8-----7-|
D|-----------5---------|
A|---------------------|
E|---------------------|

Main Riff
e|-----------------------|
B|-----------------------|
G|-----------------------|
D|-----------------------|
A|-10-------10-------7-7-|
E|-8--11-10-8--11-10-5-5-|

Chorus
e|-----------------------| You just listen to the song and repeats
B|-----------------------| the chords the right amount of times.
G|-5-----8--4------------|
D|-5--5--8--4------------|
A|-3--5--6--2------------|
E|----3------------------| 

Or you can play

e|-----------------------|
B|-----------------------|
G|-----------------------|
D|-5-----8--4------------|
A|-3--5--6--2------------|
E|----3------------------|

I haven't tabbed the solo yet but it will come sometime soon.
Tap to rate this tab
 
# A B C D E F G H I J K L M N O P Q R S T U V W X Y Z