Song name
# A B C D E F G H I J K L M N O P Q R S T U V W X Y Z

Daft Punk - Random Access Memories tab

 snl clip 1

key: {- bar finger

Bar chords:
Bm D A E

Bm CHORD:
-7---------|
-{---------|
-{---------|
-7----9----|
-----------|
-----------|

D CHORD:
-10--------|
-{---------|
-{---11----|
-10----12--|
-----------|
-----------|

A CHORD:
-5-------|
-{-------|
-{---6---|
-5-----7-|
---------|
---------|

E CHORD:
-12--------|
-{---------|
-{---13----|
-12----14--|
-----------|
-----------|


FULL SONG TAB-

[-----------------------------------------------------------------------------------|
[-----------------------------------------------------------------------------------|
[-[Bm]x5----9--7--9----[D]x5----12--11--12----[A]x5--7--5--7----[E]x5----14--12/-9--| ]
[-----------------------------------------------------------------------------------|
[-----------------------------------------------------------------------------------|
[-----------------------------------------------------------------------------------|
Tap to rate this tab
# A B C D E F G H I J K L M N O P Q R S T U V W X Y Z