Song name
# A B C D E F G H I J K L M N O P Q R S T U V W X Y Z

Daisuke Ishiwatari - Blue Water Blue Sky tab

------------------------------------------------------------------------
|    GUILTY GEAR X - BLUE WATER BLUE SKY                               |
|----------------------------------------------------------------------|
|    Tabbed by Oliver "Zebadee" Nelson                                 |
------------------------------------------------------------------------


INTRO RIFF
E|---------------------------|
B|--14-16\17--16-12----------|
G|------------------14-------|
D|---------------------------|
A|---------------------------|
E|---------------------------|

VERSE LEAD
E|--------------------------------------------------------------|
B|--------12--10-9---------------12--10-9/7---------------------|
G|--9p8h9----------9--------8h9-------------9-------------------|
D|---------------------9h11-------------------------------------|
A|--------------------------------------------------------------|
E|--------------------------------------------------------------|

E|--------------------------------------------------------------|
B|--------9-----------------------------------------------------|
G|---9-11--------8h9p8------------------------------------------|
D|--9------------------9\11---9---------------------------------|
A|--------------------------------------------------------------|
E|--------------------------------------------------------------|

E|--------------------------------------------------------------|
B|--------12--10-9---------------12--10-9/7---------------------|
G|--9p8h9----------9--------8h9-------------9-------------------|
D|---------------------9h11-------------------------------------|
A|--------------------------------------------------------------|
E|--------------------------------------------------------------|

E|---------------------------------------------------------------|
B|--------9--------------------------9-10------------------------|
G|---9-11--------8h9p8--------8-9-11-----------------------------|
D|--9------------------9\11--------------------------------------|
A|---------------------------------------------------------------|
E|---------------------------------------------------------------|

E|--------------------------------------------------------------|
B|--9h10\12-------9---9-10---9-------------9--10--12---16b-16---|
G|-----------11-9---11---------11-9---9-11----------------------|
D|--------------------------------------------------------------|
A|--------------------------------------------------------------|
E|--------------------------------------------------------------|

CHORUS LEAD
E|--------------------------------------------------------------|
B|--------12----------12---9--9h10p9------9--9h10p9--12-9-------|
G|--9--11-----8-9--11----------------9--------------------9-11--|
D|--------------------------------------9-----------------------|
A|--------------------------------------------------------------|
E|--------------------------------------------------------------|

E|---------------------------------------------------------------|
B|--------12----------12b--9--9h10p9------9--9h10p9--12-9--------|
G|--9--11-----8-9--11----------------9--------------------9-11-9-|
D|--------------------------------------9------------------------|
A|---------------------------------------------------------------|
E|---------------------------------------------------------------|


ORDER:

INTRO RIFF
VERSE LEAD
CHORUS LEAD

INTRO RIFF
VERSE LEAD
CHORUS LEAD

CHORUS LEAD
INTRO RIFF

END
Tap to rate this tab
# A B C D E F G H I J K L M N O P Q R S T U V W X Y Z