Song name
# A B C D E F G H I J K L M N O P Q R S T U V W X Y Z

Daisy Chainsaw - Love Your Money tab

----------------------------------------------------------------------------
			    LOVE YOUR MONEY - Daisy Chainsaw
----------------------------------------------------------------------------
Tuning: Standard
Tabbed by: illy93

Play this song dirty the whole way through...

Verse Riff:
e|--------------------|
B|--------------------|
G|--------------------|
D|--22-6-777-6-7-999--|
A|--22-6-777-6-7-999--|
E|--00-4-555-4-5-777--|

Chorus:
e|--------------------|-----------------------|
B|--------------------|-----------------------|
G|---99-7-9-----------|-----------------------|
D|---99-7-9-77-55-77--|--99-7-99-----------9--|
A|---77-5-7-77-55-77--|--77-5-77-77-55-77--9--|
E|----------55-33-55--|----------55-33-55--7--|
                    x2              (last time) 

Bridge: (not spot on but it sounds pretty accurate)
e|-----------------------------------|-----------------------------|
B|-----------------------------------|-----------------------------|
G|--77-6-4-77-66-9--77-6-4-77-66-11--|--77-6-4-77-66-9--77-6-4-4^--|
D|---------------7---------------9---|---------------7-------------|
A|--55-4-2-55-44----55-4-2-55-44-----|--55-4-2-55-44----55-4-2-2^--|
E|-----------------------------------|-----------------------------|
                                   x1

Outro:
e|--------------------|
B|--------------------|
G|--------------------|
D|--99-7-666-7-6-4-2--|
A|--99-7-666-7-6-4-2--|
E|--77-5-444-5-4-2-0--|

Tap to rate this tab
 
# A B C D E F G H I J K L M N O P Q R S T U V W X Y Z