Song name
# A B C D E F G H I J K L M N O P Q R S T U V W X Y Z

Damian Cullen Band - Im Ok tab

I'm O.K. by Damian Cullen Band
http://www.damiancullenband.com

Intro And Chorus:
E|--------------------------------------------------------------|
B|--------------------------------------------------------------|
G|------------------------------------------5-4-2---------------|
D|-2---------------------------2------------------5-4-2---A.H.--|
A|-2-----------1-2-----2-1p0---2------------------------X-5-----|
E|-0-X-0-3p0-X-----X-0-------3-0-X-0-3p0-X----------------------|

E|--------------------------------------------------------------|
B|--------------------------------------------------------------|
G|------------------------------------------X--5--------X--7----|
D|-2---------------------------2------------X--5--------X--7----|
A|-2-----------1-2-----2-1p0---2------------X--3--------X--5----|
E|-0-X-0-3p0-X-----X-0-------3-0-X-0-3p0-X----------------------|


Verse:
Em              C             D
Sex on my mind, tattoed on my brain
Em                    C         G
Looking at you thru a window of pain.
Em                     C     D
Pushing me around in a wheel chair.
Em                   C       D
I'm a spastic honey, I don't care.

Chorus:
Em    C    D     Em     C    D      
Hey          I'm O.K.
Em    C    D     Em     C    D      
Hey          I'm O.K.

Verse:
Em                C          D
Sick in the mind, jelly bean brain.
Em             C           G
Looking at me. Blood stain, pain.
Em                   C     D
Pushing me around in wheel chair.
Em          break
I'm no freak, but still you say.

Chorus:
Em    C    D     Em     C    D      
Hey          I'm O.K.
Em    C    D     Em     C    D      
Hey          I'm O.K.


Middle part:
Em

Em 
Guess I'm out of breath, just a number in a chair.
Waiting for the sing, will you read between the lines.
Will u help me when i call, will you catch when I fall, will you catch me when I fall.

B          G                   Em                    G      A            
21 candels,  I blow them out today. I get so sick of life. Another boring 
B              G              Em        G   A        
day. I'm on my way to another day, day, dayyyy

Solo:
Em / Em / Am / Am / Em / Em / C / D D# /

Chorus:
Em    C    D     Em     C    D      
Hey          I'm O.K.
Em    C    D     Em     C    D      
Hey          I'm O.K.
Chorus:
Em    C    D     Em     C    D      
Hey          I'm O.K.
Em    C    D     Em     C    D      
Hey          I'm O.K.

End part:
Em       G   A
I'm O.K. I'm O.K.
Em       G   A
I'm O.K. I'm O.K.
Em       G   A
I'm O.K. I'm O.K.
Em       G   A
I'm O.K. I'm O.K.
Em
I'm O.K.!
Tap to rate this tab
# A B C D E F G H I J K L M N O P Q R S T U V W X Y Z