Song name
# A B C D E F G H I J K L M N O P Q R S T U V W X Y Z

Damien Rice - Hallelujah tab

-------------------------------------------------------------------------------
                             Hallelujah - Damien Rice
-------------------------------------------------------------------------------
Tabbed by: John Luke Keel
Email: johnlukekeel@gmail.com

Tuning:Standard (Capo 3)

Intro:
e|---------------------------------------------------------------------------|
B|-----3--------3--------3--------3------------------------------------------|
G|-----0--------0--------0--------0------------------------------------------|
D|----0--0-----2--2-----0--0-----2--2----------------------------------------|
A|---2--------2--------2--------2--------------------------------------------|
E|--3------2-0------2-3------2-0-------2-------------------------------------|
       G         Em7      G       Em7
Verse:
e|---------------------------------------------------------------------------|
B|-----3--------3--------3--------3---------1--------3------3--------1-------|
G|-----0--------0--------0--------0--------0-0------0-0-----0-------0-(0)----|
D|----0--0-----2--2-----0--0-----2--2-----2---2----4---4---0--0----4----(4)--|
A|---2--------2--------2--------2------2-3------3/5-------2-----3/5----------|
E|--3------2-0------2-3------2-0-------------------------3-------------------|
       G         Em7      G       Em7       C        D       G        D

Verse:
e|-----------------------------------------------------------------------------|
B|-----3-----0h1------3------3--------1--------1----------------3--------------|
G|-----0--------0-------0----0-------0-0------0-0----4---2p0----0--------------|
D|----0--0--------2/4-------2--2----2---2----4---4--0---0----2-2--2------------|
A|---2-----2-3-------------2-----2-3------3/5------2---2------2----0-----------|
E|--3---------------------0----------------------------------0-----------------|
       G       C      D      Em7    C          D      B        Em7

Chorus:
e|--------------------------------------------------------------------------------------|
B|-----1------1------0-------0-------1------1-------3--------1--------3--------1--------|
G|----0-0----0-0-----0-------0------0-0----0-0------0-------0-0-------0-------0-(0)-----|
D|---2---2--2---2---2--2----2--2---2---2--2---2----0--0----4---4-----0--0----4----(4)---|
A|--3------3-------2----2--2----2-3------3--------2-----3/5---------2-----3/5-----------|
E|----------------0-------0----------------------3-----------------3--------------------|
       C      C       Em      Em     C      C        G       D         G        D

  Song:
Intro
Verse
Chorus
Intro
Verse
Chorus
Intro
Verse
Chorus
Intro
Verse
Chorus
Intro
Verse
Chorus
Intro

  NOTES:
Throughout the song Damien will do hammer ons and pull offs in various spots.
the only time hes played this song is live (i think) so theres the beautiful thing, you can
improv and do licks here and there. dont go crazy tho because this song is elegant and doesnt
need anything wild. i know this is right because ive played with the youtube video.
Have Fun!


  Lyrics:

Verse
   G                  Em7
I heard there was a secret chord
       G                  Em7
That david played and it pleased the lord
     C                 D               G              D
But you don't really care for music, do you
   G                         C           D
Well it goes like this the fourth, the fifth
       Em7               C
The minor fall and the major lift
        D            B       B   Em7
The baffled king composing hallelujah


Chours
     C           Em        C         G  D   G      D
Hallelujah, hallelujah, hallelujah, hallelujah ....


Verse

Well your faith was strong but you needed proof

You saw her bathing on the roof

Her beauty and the moonlight overthrew you

She tied you to her kitchen chair

She broke your throne and she cut your hair

And from your lips she drew the hallelujah


Chorus

Hallelujah, hallelujah, hallelujah, hallelujah .... .


Verse

Baby i've been here before

I've seen this room and i've walked this floor

I used to live alone before i knew you

I've seen your flag on the marble arch

But love is not a victory march

It's a cold and it's a broken hallelujah


Chorus

Hallelujah, hallelujah, hallelujah, hallelujah ....


Verse

Well there was a time when you let me know

What's really going on below

But now you never show that to me do you

But remember when i moved in you

And the holy dove was moving too

And every breath we drew was hallelujah


Chorus

Hallelujah, hallelujah, hallelujah, hallelujah ....


Verse

Well, maybe there's a god above

But all i've ever learned from love

Was how to shoot somebody who outdrew you

It's not a cry that you hear at night

It's not somebody who's seen the light

It's a cold and it's a broken hallelujah


Chorus

Hallelujah, hallelujah, hallelujah, hallelujah ....

************************************

| /   slide up
| \   slide down
| h   hammer-on
| p   pull-off

************************************
Tap to rate this tab
# A B C D E F G H I J K L M N O P Q R S T U V W X Y Z