Song name
# A B C D E F G H I J K L M N O P Q R S T U V W X Y Z

Damien Rice - Hallelujah tab

Capo: 3

Intro:
     G           Em7             G          Em7 
-------------------------------------------------------|
---------3-----------3------------3-----------3--------|
---------0-----------0------------0-----------0--------|
-------0---0-------2---2--------0---0-------2---2------|
-----2-----------2------------2-----------2------------|
---3---------2-0----------2-3---------2-0---------2----|

Verse 1:

    G           Em7             G          Em7 
--------------------------------------------------------------------------|
---------3-----------3------------3-----------3---------------------------|
---------0-----------0------------0-----------0---------------------------|
-------0---0-------2---2--------0---0-------2---2-------------------------|
-----2-----------2------------2-----------2-------------------------------|
---3---------2-0----------2-3---------2-0---------2-----------------------|
Tap to rate this tab
 
# A B C D E F G H I J K L M N O P Q R S T U V W X Y Z