Song name
# A B C D E F G H I J K L M N O P Q R S T U V W X Y Z

Damien Saez - Jeune Et Con tab

Highlighted       Show chord diagrams
 	
#----------------------------------PLEASE NOTE---------------------------------#
#This file is the author's own work and represents their interpretation of the #
#song. You may only use this file for private study, scholarship, or research. #
#------------------------------------------------------------------------------#

SAEZ (DAMIEN)
Song : Jeune et Con
Chords transcripts by Ashley Ittoo
http://persomania.net
http://atem2000.free.fr

INTRO Picking
e|-------------------------|--------------------------------------------------|
B|-----3-----1-0-----------|-----3------0-1-0-------3-0-----------------------|
G|---0-----0-----0-2-0---0-|---0------0-------0-2-2---------------------------|
D|-2-------------------4---|-2------------------------------------------------|
A|-------3-----------------|-------3------------------------------------------|
E|-------------------------|--------------------------------------------------| 

Intro Chords
Em - Em7 - C - G - D 


Em7 Chord
e|---------|
B|---3-----|
G|---------|
D|-2-------|
A|-2-------|
E|---------|

Same Chords all way long...

  Em                C            G       D
Encore un jour se lève sur la planète France
               Em             C        G              D
Et je sors doucement de mes rêves je rentre dans la danse
        Em              C                   G                 D
Comme toujours il est huit heures du soir j'ai dormi tout le jour
            Em        C                 G             D     
Je me suis encore couché trop tard je me suis rendu sourd
  Em
Encore
Tap to rate this tab
# A B C D E F G H I J K L M N O P Q R S T U V W X Y Z