Guitaretab - guitar tabs
Song name
# A B C D E F G H I J K L M N O P Q R S T U V W X Y Z

Dance Gavin Dance - Carl Barker tab

-------------------------------------------------------------------------------
			     CARL BARKER - DGD
-------------------------------------------------------------------------------
Tabbed by: Jayisthedank	
Email: julesdurel@gmail.com

More to come
[ Tab from: http://www.guitaretab.com/d/dance-gavin-dance/185547.html ]
Tuning: Drop D
                                    S    S ( i play it with hammer ons ) 
e|---------------------------------1/3---------------------------------------|
B|------------------------------------ x1/3----------------------------------|
G|-----7B-5h7-3h5p0------2--2h3h5--------------------------------------------|
D|-----------------3h5-------------------------------------------------------|
A|---------------------------------------------------------------------------|
D|5-xx-----------------------------------------------------------------------|
                          s          s
e|-------------------------------------------13h15---------------------------|
B|---------------------6-6/8---11p8-----11h13--------------------------------|
G|-----7B-5h7-3h5p0-----7----------10/12-------------------------------------|
D|-----------------3h5------10-----------------------------------------------|
A|---------------------------------------------------------------------------|
D|3-xx------------------------|----------------------------------------------|
                              Second Time through stop and ring out the 10
e|---------------------------------------------------------------------------|
B|---------------------------------------------------------------------------|
G|---------------------------------------------------------------------------|
D|---------------------------------------------------------------------------|
A|---------------------------------------------------------------------------|
E|---------------------------------------------------------------------------|


| /  slide up
| \  slide down
| h  hammer-on
| p  pull-off
| ~  vibrato
| +  harmonic
| x  Mute note
===============================================================================
Related for Carl Barker tab
Advertisement will be closed in 10 seconds