Song name
# A B C D E F G H I J K L M N O P Q R S T U V W X Y Z

Dance Gavin Dance - Strawberry Swisher Part 2 Acoustic tab

So i tabbed this like regular guitar cause the tabs were really far
out on the fret board but when you play just use a capo on 3rd



VERSE
just play these three chords and listen for changes
|-----3--3---|
|--3--3--3---|
|--3--3--3---|
|--15-10-8---|
|--13-9--6---|
|------------|


CHORUS
just listen for changes
|--------3--3-|
|--15-3--3--3-|
|--15-3--3--3-|
|--13-15-10-8-|
|-----13-9--6-|
|-------------|

any questions just email me at bvalon@hotmail.com
Tap to rate this tab
 
# A B C D E F G H I J K L M N O P Q R S T U V W X Y Z